Troll - Over Daudens Kolde Mark Chords & Tabs

 

Over Daudens Kolde Mark Chords & Tabs

Troll Chords & Tabs

Version: 1 Type: Tab 0 ratings
1 star 2 stars 3 stars 4 stars 5 stars
comments

Over Daudens Kolde Mark Tab

   
Artist: Troll
Title: Over daudens kolde mark
Album: Trollstorm over Nidinggjuv

Tabbed by elc (elc@o2.pl;elc@poczta.onet.pl)

Lots of distortion + tremolo picking all the song

Riff 1
e|-----------------------------------------------------------------|
B|-9---------------8---------------9---------------5---------------|
G|-10--------------9---------------10--------------6---------------|
D|-10--------------9---------------10--------------6---------------|
A|-8---------------7---------------8---------------4---------------|
E|-----------------------------------------------------------------|

Riff 2
e|-----------------------------------------------------------------|
B|-----------------------------------------------------------------|
G|-10----9-----------------6/7-7/1011----10----------------7/8-8/10|
D|-10----9-----------------6/7-7/1011----10----------------7/8-8/10|
A|-8-----7-----------------4/5-5/8-9-----8-----------------5/6-6/8-|
E|-----------------------------------------------------------------|

Bridge
e|-------------|
B|-------------|
G|-6--5-68--9--|
D|-6--5-68--9--|
A|-4--3-46--7--|
E|-------------|
[ Tab from: http://www.guitartabs.cc/tabs/t/troll/over_daudens_kolde_mark_tab.html ]
Riff 3
e|-------------------------------------------------|
B|-------------------------------------------------|
G|-9---------8-9---------8-12-9--8-9-1112-14-12-11-|
D|-9---------8-9---------8-12-9--8-9-1112-14-12-11-|
A|-7---------6-7---------6-10-7--6-7-9-10-12-10-9--|
E|-------------------------------------------------|

e|-------------------------------------------------|
B|-------------------------------------------------|
G|-6-665-6-665-9-998-9-998-6-665-6-665-9-998-9-998-|
D|-6-665-6-665-9-998-9-998-6-665-6-665-9-998-9-998-|
A|-4-443-4-443-7-776-7-776-4-443-4-443-7-776-7-776-|
E|-------------------------------------------------|

Riff 4
Guitar 1
e|-----------------------------------------------------------------|
B|-5---------------2---------------6---------------3---------------|
G|-6---------------3---------------7---------------4---------------|
D|-6---------------3---------------7---------------4---------------|
A|-4---------------1---------------5---------------2---------------|
E|-----------------------------------------------------------------|

Guitar 2
e|-----------------------------------------------------------------|
B|-----------------5---6---------------------------6---7-----------|
G|-6-------------------------------7-------------------------------|
D|-----------------------------------------------------------------|
A|-----------------------------------------------------------------|
E|-----------------------------------------------------------------|
Comments