Troggs - Wild Thing Chords & Tabs

 

Wild Thing Chords & Tabs

Troggs Chords & Tabs

Version: 5 Type: Bass Tab 0 ratings
1 star 2 stars 3 stars 4 stars 5 stars
comments

Wild Thing Bass Tab

intro

e-----5-5-----7----------------------------------------------------|
a----------5-5---7777-77-------------------------------------------|
d------------------------------------------------------------------|
g------------------------------------------------------------------|

chorus
         (wild thing.........)
e----5-5-----7------------------------------------------------|
a---------5-5--7-7--5-5---------------------------------------|   x3
d-------------------------------------------------------------|
g-------------------------------------------------------------|
[ Tab from: http://www.guitartabs.cc/tabs/t/troggs/wild_thing_btab_ver_5.html ]
4th time
e----5-5----7---------3-5-3-5-------------------------------|
a--------5-5--7777------------------------------------------|
d-----------------------------------------------------------|
g-----------------------------------------------------------|


  verse
e-------3-5-3-5-------------------------------------------|
a---------------------------------------------------------|       x3
d---------------------------------------------------------|
g---------------------------------------------------------|


        chorus

thats all u need to no the rest u can play by ear
Comments