Troggs - Wild Thing Chords & Tabs

 

Wild Thing Chords & Tabs

Troggs Chords & Tabs

Version: 2 Type: Bass Tab 0 ratings
1 star 2 stars 3 stars 4 stars 5 stars
comments

Wild Thing Bass Tab

Wild Thing 
by The Troggs
[ Tab from: http://www.guitartabs.cc/tabs/t/troggs/wild_thing_btab_ver_2.html ]
Intro
d-------0-0-0--2-2-2-2-2-2-2-
a--0-0-----------------------
Verse
d-------0-0-0--2-2--0-0-0--(x4)
a--0-0---------------------
2nd Verse
d-------0-0-0---------------
a--0-0----------------------
e-------------0-0-0-0-0-0-0-
Chorus (Wild Thing I think...)
a----0----0-(x3)
e--3----3---

Repeat 4 times
Comments