Trixter - Surrender Chords & Tabs

 

Surrender Chords & Tabs

Trixter Chords & Tabs

Version: 1 Type: Tab 0 ratings
1 star 2 stars 3 stars 4 stars 5 stars
comments

Surrender Tab

   
SURRENDER
Trixter
tabber: bighabit69@iamwasted.com                         tuning down 1/2 step (Eb Ab Db Gb Bb Eb


 Intro
  E       B5        C#m       A              E       B5
Gtr I
|-0-----------0---|--9----9---5--(5)-5-5-5-|-0-----------0---|
|-0-----------0-x-|--9-9--9-9-5--(5)-5-5-5-|-0-----------0-x-|
|-1-------4-------|--9----9---6--(6)-6-6-6-|-1-------4-------|
|-2---1-2-4-4-----|-11---11---7--(7)-7-7-7-|-2---1-2-4-4-----|
|-2-2-----2-------|-11---11---7--(7)-7-7-7-|-2-2-----2-------|
|-0---------------|--9----9---5--(5)-5-5-5-|-0---------------|


                    Verse
  C#m     A               C#m         A
 6/4                4/4
|--9---9--5--------|------4--(4)----|-0-----0-----0-0-0---0-|
|--9-9-9--5--------|----5-5--(5)----|-2---2-------2-2-2-----|
|--9---9--6--------|--6---6--(6)----|-2-----------2-2-2p0---|
|-11------7--------|------6--(6)----|-2---------2-----------|
|-11------7--------|------4--(4)----|-0-------0-------------|
|--9------5--------|----------------|-----------------------|


  C#m                A5    B5  C#m
  Gtr II
                                   |
                                   /

  Gtr I
|------------------|-----------7-7----|
|-4h5----4h5-4-----|-----------7-7----|
|-6------------6---|-2---2-4---8-8----|
|-6--------------4-|-2---2-4---9-9--9-|
|-4----------------|-0---0-2----------|
|------------------|------------------|


                 B5  A5
    |
    /

||-----------------|----------|
||o-4h5--4-4h5-----|----------|
||--6----6-6-----4-|-2--------|
||--6----6-6-----4-|-2--------|
||o-4----4-4-------|-0--------|
||-----------------|----------|


  C#m             A5       B       Aadd9
                 6/4
|-4-------------|----------0-------0-|
|-5-----4-4-4-5-|----0-0-0-0-------0-|
|-6-----4-4-4-6-|-2--2-2-2-4-------6-|
|-6-----6-6-6-6-|-2--2-2-2-4-------7-|
|-4-------------|-0--0-0-0-2---------|
|---------------|--------------------|


                   B         B5C#A5
 4/4
|-0--0-0-0-0-0-0-|-0--0--0-0-------|
|-0--0-0-0-0-0-0-|-0--0--0-0-------|
|-6--6-6-6-6-6-6-|-4--4--4-4-4-6-2-|
|-7--7-7-7-7-7-7-|-4--4--4-4-4-6-2-|
|----------------|-2--2------2-4-0-|
|----------------|-----------------|


                 G#m           A   B E
|----------------4-|-4-4-4-4-4-5-5-7---|
|----------------4-|-4-4-4-4-4-5-5-7-9-|
|-2--2-2-2-2-2-2-4-|-4-4-4-4-4-6-6-8-9-|
|-2--2-2-2-2-2-2-6-|-6-6-6-6-6-7-7-9-9-|
|-0--0-0-0-0-0-0-6-|-6-6-6-6-6-7-7-9-7-|
|----------------4-|-4-4-4-4-4-5-5-7---|


 Chorus
  E    B        C#mA
  Gtr II
  | || | |||  | |||| |||
  / /o / ///  / //// ///

  Gtr III
|-----------|------------|
|-----------|------------|
|------4----|-6----2---2-|
|-2----4----|-6----2---2-|
|-2----2----|-4----0---0-|
|-0---------|------------|


             1.
  E    B      C#m  A
             6/4
  Gtr II
  | || | |||  | ||||
  / /o / ///  / ////

|-----------|------------||
|-----------|-----------o||
|------4----|-6----2-----||
|-2----4----|-6----2-----||
|-2----2----|-4----0----o||
|-0---------|------------||


  2.
  C#m  A      E    B
 4/4
  | |||| |||  | || | |||
  / //// ///  / /o / ///

|-----------|-----------|
|-----------|-----------|
|-6----2----|------4----|
|-6----2----|-2----4----|
|-4----0----|-2----2----|
|-----------|-0---------|


  C#m  A       E    B
 4/4
  | |||| |||   | || | |||
  / //// ///   / /o / ///

|------------|-----------|
|------------|-----------|
|-6----2---2-|------4----|
|-6----2---2-|-2----4----|
|-4----0---0-|-2----2----|
|------------|-0---------|


                 Bridge
  C#m  A          A5   B5
 6/4             4/4
  | ||||
  / ////

|---------------|-----------|
|---------------|-----------|
|-6----2--------|-2----4----|
|-6----2--------|-2----4----|
|-4----0--------|-0----2----|
|---------------|-----------|


|-----------|-----------|
|-----------|-----------|
|-2----4----|-2----4----|
|-2----4----|-2----4----|
|-0----2----|-0----2----|
|-----------|-----------|


  C#   B      A5
|-----------|----------|-----------------|
|-----------|----------|-----------------|
|-6----4----|-2--------|-2---------------|
|-----------|-2--------|-2---------------|
|-4----2----|-0--------|-0----2s4s6-7-7--|
|-----------|----------|-----------------|


 Guitar Solo
  E                                  B5
  Gtr II
  |                  |                |      |
  /                  /                /      /

  Gtr IV
|------------------------------------------------|
|------9-12-12b14==(12)r(12)-9----12h14-12-(12)--|
|--/11-------------------------11----------------|
|------------------------------------------------|
|------------------------------------------------|
|------------------------------------------------|
|
| Gtr III
|------------------------------------------------|
|------------------------------------------------|
|------9-11-11b13==(11)r(11)-9-----9h11--9--(9)--|
|--/11-------------------------11----------------|
|------------------------------------------------|
|------------------------------------------------|


  C#m                                   A5
  |                  |                    |           |             |
  /                  /                    /           /             /
[ Tab from: http://www.guitartabs.cc/tabs/t/trixter/surrender_tab.html ]
|---------------------------------12b14-(12)--12b14-(12)-12b14-(12)--12b14-(12)-|
|------9-12-12b14==(12)r(12)-9--------------------------------------------------|
|--/11-------------------------11-----------------------------------------------|
|-------------------------------------------------------------------------------|
|-------------------------------------------------------------------------------|
|-------------------------------------------------------------------------------|
|
|                                         ~~~~        ~~~~       ~~~~        ~~~~
|-------------------------------------------------------------------------------|
|---------------------------------12b14-(12)--12b14-(12)-12b14-(12)--12b14-(12)-|
|------9-11-11b13==(11)r(11)-9--------------------------------------------------|
|--/11-------------------------11-----------------------------------------------|
|-------------------------------------------------------------------------------|
|-------------------------------------------------------------------------------|


  E5       B5
   |    |    |                |
   /    /    /                /

   ~~
|-12-----------------------------------------|
|--------------------------------------------|
|--------------------------------------------|
|--------------------------------------------|
|--------------------------------------------|
|--------------------------------------------|
|
|  ~~
|-----/12--(12)-9-11----9--------------------|
|-12-----------------12---10-12-9-10----9----|
|------------------------------------11---11-|
|--------------------------------------------|
|--------------------------------------------|
|--------------------------------------------|


  C#m                  A
    |         |         |         |   |
    /         /         /         /   /

|------------------------------------------|
|------------------------------------------|
|------------------------------------------|
|------------------------------------------|
|------------------------------------------|
|------------------------------------------|
|
|------------------------------------------|
|------------------------------------------|
|-/13-11-9-9h11-9--------------------------|
|-----------------11-9h11-9----------------|
|---------------------------11-9h11-9-9s7--|
|------------------------------------------|


  E5       B5            C#m                A
  |  |     |   |          |         |       |       |   |  |
  /  /     /   /          /         /       /       /   /  /

|------0------------|---------------------------------------|
|----------7---9----|-10h12-10-9-9h10-9-7-7h9-7-5-5h7-5--4--|
|--------8---9---11-|---------------------------------------|
|-------------------|---------------------------------------|
|-------------------|---------------------------------------|
|-0--0--------------|---------------------------------------|


  E5           B5
  |         |    |           |
  /         /    /           /

                 ~~~~~                   ~~
|---------------------------11b12==(11)r11-|
|-5--------12--(12)\----9------------------|
|------9-------------/8---8----------------|
|---/9---9---------------------------------|
|------------------------------------------|
|------------------------------------------|


  C#m                   A5
 6/4
  |         |             |
  /         /             /

                                                                            ~~
|---------(12)\--19b21==(19)r(19)b21==(19)r(19)b21==(19)-(19)--17-16-------17--|
|----10--------------------------------------------------------------17--------|
|--9----9--(9)\---------------------------------------------------------16-----|
|------------------------------------------------------------------------------|
|------------------------------------------------------------------------------|
|------------------------------------------------------------------------------|


 Verse
 4/4
|-[16]b17==(16)r([16])b17==([16])r([16])b17==([16])r([16])b17==([16])r([16])b17==([16])----|
|------------------------------------------------------------------------------------------|
|------------2-----------------------------------------------------------------------------|
|------------2-----------------------------------------------------------------------------|
|------------0-----------------------------------------------------------------------------|
|------------------------------------------------------------------------------------------|


|----------------|
|----------------|
|-4--4-4-4-4-4---|
|-4--4-4-4-4-4---|
|-2--2-2-2-2-2-2-|
|--------------0-|


|----------|-4----5-5-7-7-|-0--0--0---0-|
|----------|-4----5-5-7-7-|-0--0--0---0-|
|-2--------|-4----6-6-8-8-|-1--1--4-----|
|-2--------|-6----7-7-9-9-|-2--2--2-----|
|-0--------|-6----7-7-9-9-|-2--2--------|
|----------|-4----5-5-7-7-|-0--0--------|


|--------0-(0)--(0)-0-0-0-|-0----0--0---|
|-5--5-4-0-(0)--(0)-0-0-0-|-0----0--0---|
|-6--6-4-2-(2)--(2)-2-2-2-|-1----4----4-|
|-6--6-4-2-(2)--(2)-2-2-2-|-2----4----4-|
|-4--4---0-(0)--(0)-------|-2----2----2-|
|-------------------------|-0-----------|


                  E    B
  Gtr II
                  | |||| |||
                  / //// ///

|-4--4-4------||------------|
|-5--6-6------||o-----------|
|-6--6-6-2----||-------4----|
|-6--6-6-2----||--2----4----|
|-4------0----||o-2----2----|
|-------------||--0---------|


  C#m  A      E    B      C#m  A
  | |||| |||  | |||| |||  | |||| |||
  / //// ///  / //// ///  / //// ///

                                     4x
|-----------|-----------|------------||
|-----------|-----------|-----------o||
|-6----2----|------4----|-6----2-----||
|-6----2----|-2----4----|-6----2-----||
|-4----0----|-2----2----|-4----0----o||
|-----------|-0---------|------------||
Comments