Trivium - When All Light Dies Chords & Tabs

 

When All Light Dies Chords & Tabs

Trivium Chords & Tabs

Version: 1 Type: Tab

When All Light Dies Tab

When All Light Dies (intro)
Trivium

this is my first tab so it might not be too great but i havent seen this
song any where so ill try my hand at tabbing it out

Drop D tuning 

e|----------------------------------------------------------------------|
B|----------------------------------------------------------------------|
G|o---------------------------------------------------------------------|
D|---0------------------------------------------------------------------|
A|o--0--12/14-0-0-14\12--0-0-12/15-0-0-15\14-0-0-12-0-0-14--------------|
D|---0------------------------------------------------------------------|
 p.m          - -        - -       - -       - -    - -
 |
 |
e|-----------------------------------------------------------------------|
B|-----------------------------------------------------------------------|
G|-----------------------------------------------------------------------|
D|-0----let--------------------------------------------------------------|
A|-0----ring-------------------------------------------------------------|
D|-0---------------------------------------------------------------------|
[ Tab from: http://www.guitartabs.cc/tabs/t/trivium/when_all_light_dies_tab.html ]
e|-----------------------------------------------------------------------|
B|-----------------------------------------------------------------------|
G|-----------------------------------------------------------------------|
D|-----------------------------------------------------------------------|
A|-0-0-12/17-0-0-17\15-0-0-12h14p12--0-0-10h12p10-0-0-7h8p7p5------------|
D|-----------------------------------------------------------------------|
p.m- -       - -       - -           - -          - -
 |
 |                                                                     x2
e|-----------------------------------------------------------------------|
B|-----------------------------------------------------------------------|
G|-------------------------------------------------------------------o---|
D|-0---let---------------------------------------------------------------|
A|-0---ring----------------------------------------------------------o---|
D|-0---------------------------------------------------------------------|

e|-----------------------------------------------------------------------|
B|-----------------------------------------------------------------------|
G|o----------------------------------------------------------------------|
D|---0-------------------------------------------------------------------|
A|o--0--12/14-0-0-14\12--0-0-12/15-0-0-15\14-0-0-12-0-0-14---------------|
D|---0-------------------------------------------------------------------|
 p.m          - -        - -       - -       - -    - -
 |
 |
e|------------------------------------------------------------------------|
B|------------------------------------------------------------------------|
G|o-----------------------------------------------------------------------|
D|------------------------------------------------------------------------|
A|o0--0--0--0--0--0--0--0--2--2--2--2--3--3--3--3-------------------------|
D|-0--0--0--0--0--0--0--0--2--2--2--2--3--3--3--3-------------------------|
 
 
e|------------------------------------------------------------------------|
B|------------------------------------------------------------------------|
G|------------------------------------------------------------------------|
D|------------------------------------------------------------------------|
A|-0-0-12/17-0-0-17\15-0-0-12h14p12--0-0-10h12p10-0-0-7h8p7p5-------------|
D|------------------------------------------------------------------------|
p.m- -       - -       - -           - -          - -
 |
 |                                                                      x4
e|------------------------------------------------------------------------|
B|------------------------------------------------------------------------|
G|----------------------------------------------------------------------o-|
D|------------------------------------------------------------------------|
A|-8--8--8--8--8--8--8--8--10--7--7--7--7--5--5--5----------------------o-|
D|-8--8--8--8--8--8--8--8--10--7--7--7--7--5--5--5------------------------|


thats basically how its set up..ill add more as i figure it out