Trivium - Rain Chords & Tabs

 

Rain Chords & Tabs

Trivium Chords & Tabs

Version: 3 Type: Tab 0 ratings
1 star 2 stars 3 stars 4 stars 5 stars
comments

Rain Tab

i no this tab sucks ass but i did not tab it, my friend did and he sent me all his
guitar pro 4 crap and this just happened 2 be in it..... so if u wanna complain and
say i suck at tabbing go head i dont give 2 shits less

drop d tuning

----------------------|-------------------|----------------------|
----------------------|-------------------|----------------------|
----------------------|-------------------|----------------------|
--12r-----------------|-------------------|--12r-----------------|
----------------12----|--8----------------|----------------12----|
----------------------|-------------------|----------------------|

--------------------|----------------------|----------------------|
--------------------|----------------------|----------------------|
--------------------|----------------------|----------------------|
--------------------|----------------------|----------------------|
--7--------8--------|--15------------12----|--12--------15--------|
--------------------|----------------------|----------------------|

----------------------|----------------------|--------------------------|
--13------------10----|--10--------13--------|--13/---15--------17--15--|
----------------------|----------------------|--------------------------|
----------------------|----------------------|--------------------------|
----------------------|----------------------|--------------------------|
----------------------|----------------------|--------------------------|
[ Tab from: http://www.guitartabs.cc/tabs/t/trivium/rain_tab_ver_3.html ]
--------------------|------------------------------|-------------------------|
--17b---------------|--17---15---13----------------|-------------------------|
--------------------|-----------------14-----------|-------------------------|
--------------------|---------------------14---15--|---15h-17--------15--14--|
--------------------|------------------------------|-------------------------|
--------------------|------------------------------|-------------------------|

----------------------|----------------------|----------------------|
----------------------|----------------------|----------------------|
------------14--------|------------15--------|--14--------17--------|
--15------------------|--17------------------|----------------------|
----------------------|----------------------|----------------------|
----------------------|----------------------|----------------------|

--17p15p13--------------------------------|--------------------|
------------17p15p13----------------------|--8-----------------|
----------------------16p14p13------------|--11----------------|
--------------------------------16p14p13--|--------------------|
------------------------------------------|--------------------|
------------------------------------------|--------------------|

u gotta time it right to make it sound right or else it'll sound like shit
ne ?'s comments im me on aim or msn
i got mostly all of triviums songs tabbed out and they are all 100% accurate also so 
me and ill send u a tabbing program w/ the trivium tabs

aim:badxreligion120
msn:XdarksidecallX@hotmail.com
Comments