Trivium - Rain Chords & Tabs

 

Rain Chords & Tabs

Trivium Chords & Tabs

Version: 1 Type: Bass Tab 0 ratings
1 star 2 stars 3 stars 4 stars 5 stars
comments

Rain Bass Tab

   
-------------------------------------------------------------------------------
			     SONG NAME - rain by trivium
-------------------------------------------------------------------------------

Tabbed By : dave                        Im not even a bassist ha!
e-mail: dave

Tuning:drop d
Intro 
                                          then
G|------------------------------------------------------------------|
D|------------------------------------------------------------------|
A|5----6-3-------5--------10-9-x2----6h8---8p6---5h6----------------| 
D|0--------------0-----------------------0-----0--------------------|
  Riff 1
G|------------------------------------------------------------------|
D|------------------------------------------------------------------|
A|5-------6-3----------------5------10-9-------------x26h8-8p6-5h6|
D|--00000------00000-000-000---00000-----00000-000-000------0----0--|
  Riff 2 (chorus)                                        
G|------------------------------------------------------------------|
D|------------------------------------------------------------------|
A|----------------------------------------------1-1-1-0-0-0---------|
D|0--0-0-0h1--1-1-1-1-1-1-1-1---0--0-0-0h1-1-1----------------------|
 
G|------------------------------------------------------------------|
D|------------------------------------------------------------------|
A|----------------------------------------------1-1-1-3-3-3---------|
D|0--0-0-0h1--1-1-1-1-1-1-1-1---0--0-0-0h1-1-1----------------------|
Verse
Pause for 2 riffs of guitar then back to riff 1 slide from 12 on D
G|------------------------------------------------------------------|
D|------------------------------------------------------------------|
A|------------------------------------------------------------------|
D|------------------------------------------------------------------|
[ Tab from: http://www.guitartabs.cc/tabs/t/trivium/rain_btab.html ]
Riff 3
G|------------------------------------------------------------------|
D|-----------------------------------------------------8-7-5--7-5---|
A|-----------------1-1111-111-0-0000x2-----------------------6---6-5|
D|0--0000-0000-0000-----------------------8--8--10--10--------------|

chorus

verse

riff 3

chorus

interlude

G|------------------------------------------------------------------|
D|------------------------------------------------------------------|
A|8------3---1-----5------12----10x2------------------------------|x2
D|-------------------------------------0----------------------------|



Riff 4
G|------------------------------------------------------------------|
D|------------------------------------------------------------------|
A|------------------------------------------------------------------|
D|0000---000--0000--00--00-x2---------------------------------------|


Riff 5
G|----------------------------------------------------------------|
D|----------------------------------------------------------------|
A|1111---33333---5555-----77777--88888----------------------------|
D|----------------------------------------------------------------|


Riff 4

Riff 5 x5 end on 5th fret high d string


ending
G|------------------------------------------------------------------|
D|------------------------------------------------------------------|
A|--------------------------------------1----0----------------------|
D|000000-1-0--000000-1-0--000000-1-0-000--000-----------------------|


G|------------------------------------------------------------------|
D|-------------------------------------------8-------8------------|x2
A|-------------------------------------5--6-----56-----------------|
D|000000-1-0--000000-1-0--000000-1-0--------------------------------|

End on open d

| /  slide up
| \  slide down
| h  hammer-on
| p  pull-off
| ~  vibrato
| +  harmonic
| x  Mute note
===============================================================================
Comments