Trivium - Pull Harder On The Strings Of Your Martyr Chords & Tabs

 

Pull Harder On The Strings Of Your Martyr Chords & Tabs

Trivium Chords & Tabs

Version: 2 Type: Bass Tab 0 ratings
1 star 2 stars 3 stars 4 stars 5 stars
comments

Pull Harder On The Strings Of Your Martyr Bass Tab

   
-------------------------------------------------------------------------------
		Pull harder On the Strings Of Your Martyr - Trivium
-------------------------------------------------------------------------------

Tabbed By : Willyharbs(GOD)
e-mail: Willyharbs@hotmail.co.uk

Tuning: Drop D (G D A D)

Drum Intro

Intro/Verse
G|-----------------------------------------------------------------|--|
D|-----------------------------------------------------------------|--|
A|-5--------------55--------------56--------------67---------------|X2|
E|--00000000000000--00000000000000--55555555555555--77777777777777-|--|

G|----------------------------------|--|
D|----------------------------------|--|
A|----------------------------------|X2|
E|-00000000000000005555555577777777-|--|

Verse
G|-----------------------------------------------------------------|--|
D|-----------------------------------------------------------------|--|
A|-5--------------55--------------56--------------67---------------|X2|
E|--00000000000000--00000000000000--55555555555555--77777777777777-|--|

Pre-Chorus
G|-------------------------------------------------------|
D|-------------------------------------------------------|
A|-----(12121212)---(10101010)---(12121212)---(10101010)-|
E|-010-----------010----------010----------010-----------|

G|-------------------------------------------------------------|
D|-------------------------------------------------------------|
A|-----(12121212)----(10101010)----(12121212)-------(15151515)-|
E|-7888----------7888----------7888----------7101010-----------|

G|-------------------------------------------------------|
D|-------------------------------------------------------|
A|-----(12121212)---(10101010)---(12121212)---(10101010)-|
E|-010-----------010----------010----------010-----------|

G|-------------------------------------------------------------|
D|-------------------------------------------------------------|
A|-----(12121212)----(10101010)----(12121212)-------(15151515)-|
E|-7888----------7888----------7888----------7101010-----------|

Chorus
G|-----------------------------------------------------------------|
D|-----------------------------------------------------------------|
A|-------5---7---------------------------5---7---------------------|
E|-0--0--------8--8888888855555555-0--0--------8--3333333333333333-|

Verse
G|-----------------------------------------------------------------|--|
D|-----------------------------------------------------------------|--|
A|-5--------------55--------------56--------------67---------------|X2|
E|--00000000000000--00000000000000--55555555555555--77777777777777-|--|





Pre-Chorus
G|-------------------------------------------------------|
D|-------------------------------------------------------|
A|-----(12121212)---(10101010)---(12121212)---(10101010)-|
E|-010-----------010----------010----------010-----------|

G|-------------------------------------------------------------|
D|-------------------------------------------------------------|
A|-----(12121212)----(10101010)----(12121212)-------(15151515)-|
E|-7888----------7888----------7888----------7101010-----------|

G|-------------------------------------------------------|
D|-------------------------------------------------------|
A|-----(12121212)---(10101010)---(12121212)---(10101010)-|
E|-010-----------010----------010----------010-----------|
[ Tab from: http://www.guitartabs.cc/tabs/t/trivium/pull_harder_on_the_strings_of_your_martyr_btab_ver_2.html ]
G|-------------------------------------------------------------|
D|-------------------------------------------------------------|
A|-----(12121212)----(10101010)----(12121212)-------(15151515)-|
E|-7888----------7888----------7888----------7101010-----------|

Chorus
G|-----------------------------------------------------------------|
D|-----------------------------------------------------------------|
A|-------5---7---------------------------5---7---------------------|
E|-0--0--------8--8888888855555555-0--0--------8--3333333333333333-|

G|-----------------------------------------------------------------|
D|-----------------------------------------------------------------|
A|-------5---7---------------------------5---7---------------------|
E|-0--0--------8--8888888855555555-0--0--------8--3333333333333333-|

Bridge
G|----------------------------|-----------------------------------------------|
D|----------------------------|-----------------------------------------------|
A|----------------------------|-----------------------------------------------|
E|-0---------------7--------8-|-00-00-00------0----0----00000000-88-88-88-----|
                          
                          Guitar Solo
G|--------------------|--|----------------------------------------------------------|
D|--------------------|--|----------------------------------------------------------|
A|--------------------|X4|----------------------------------------------------------|
E|-8----8----77777777-|--|-00000000000000000000000000000000888888888888888888888888-|

G|----------------------------------------------------------------|--|
D|----------------------------------------------------------------|--|
A|---------------------------------444444444444444444444444444444-|X2|
E|-33333333333333333333333333333333-------------------------------|--|

Guitar (1st part of Pre-Chorus)

G|-------------------------------------------------------------|
D|-------------------------------------------------------------|
A|-----(12121212)----(10101010)----(12121212)-------(15151515)-|
E|-7888----------7888----------7888----------7101010-----------|

G|-------------------------------------------------------|
D|-------------------------------------------------------|
A|-----(12121212)---(10101010)---(12121212)---(10101010)-|
E|-010-----------010----------010----------010-----------|

G|-------------------------------------------------------------|
D|-------------------------------------------------------------|
A|-----(12121212)----(10101010)----(12121212)-------(15151515)-|
E|-7888----------7888----------7888----------7101010-----------|
Chorus
G|-----------------------------------------------------------------|
D|-----------------------------------------------------------------|
A|-------5---7---------------------------5---7---------------------|
E|-0--0--------8--8888888855555555-0--0--------8--3333333333333333-|

G|-----------------------------------------------------------------|
D|-----------------------------------------------------------------|
A|-------5---7---------------------------5---7---------------------|
E|-0--0--------8--8888888855555555-0--0--------8--3333333333333333-|

G|-----------------------------------------------------------------|
D|-----------------------------------------------------------------|
A|-5--------------55--------------56--------------67---------------|
E|--00000000000000--00000000000000--55555555555555--77777777777777-|

G|----------------------------------------------------|
D|----------------------------------------------------|
A|-5--------------55--------------56--------------67\-|
E|--00000000000000--00000000000000--55555555555555----|
Comments