Trivium - Pull Harder On The Strings Of Your Martyr Chords & Tabs

 

Pull Harder On The Strings Of Your Martyr Chords & Tabs

Trivium Chords & Tabs

Version: 1 Type: Bass Tab 0 ratings
1 star 2 stars 3 stars 4 stars 5 stars
comments

Pull Harder On The Strings Of Your Martyr Bass Tab

   
Tuning: Drop D (D A D G)



Trivium
Pull Harder on the Strings of your Martyr
Ascendancy
Drop D Tuning-D,A,D,G

Intro
G|------------------------------------------------------------||
D|------------------------------------------------------------||
A|-5------------5-5------------5-6------------6-5-------------||
D|--000000000000---000000000000---888888888888---777777777777-||

Riff 2
G|-------------------------------------------------------------------||
D|-------------------------------------------------------------------||
A|-------------------------------------------------------------------||
D|-00000000000000000000000000000000-88888888888888887777777777777777-||

Intro Riff
[ Tab from: http://www.guitartabs.cc/tabs/t/trivium/pull_harder_on_the_strings_of_your_martyr_btab.html ]
Riff 3
G|-------------------------------------------------------------------------||
D|-------------------------------------------------------------------------||
A|--------12-12-12-12-------10-10-10-10-------12-12-12-12------10-10-10-10-||
D|-0-1-0--------------0-1-0-------------0-1-0-------------0-1-0------------||

Riff 3 part 2
G|--------------------------------------------------------------------------||
D|--------------------------------------------------------------------------||
A|-------12-12-12-12------10-10-10-10------12-12-12-12----------10-10-10-10-||
D|-7-8888-----------7-8888-----------7-8888-----------7-10101010------------||

Chorus Riff
G|-------------------------------||
D|-------------------------------||
A|-----8-------10-8-10h12h10h12--||
D|-0-0---10-8~-------------------||

intro riff
riff 3 part 1 and 2 
chorus riff again

Riff 4
G|---------------------------------------------------------||
D|---------------------------------------------------------||
A|---------------------------------------------------------||
D|-00-00-00-0000-0-00-00000000-88-88-88-8888-8-77-77777777-||

Riff 3 part 2
Riff 3 part 1
Riff 3 part 2
Chorus Riff
Intro Riff
Comments