Trivium - If I Could Collapse The Masses Chords & Tabs

 

If I Could Collapse The Masses Chords & Tabs

Trivium Chords & Tabs

Version: 1 Type: Tab 0 ratings
1 star 2 stars 3 stars 4 stars 5 stars
comments

If I Could Collapse The Masses Tab

Author/Artist: Trivium
Title: If I could Collapse The masses
Album: Ember To Infero

eADGBE
------------------------------------------------------------------------------|
------------------------------------------------------------------------------|
------------------------------------------------------------------------------|
------------------------------------------------------------------------------|
----7----9---10---6---7---9--10--6--7--9---10--6--7--9--10--6-----------------|
-00---00---00---00--00--00-00--00-00-00-00---00-00-00-00--00------------------|


------------------------------------------------------------------------------|
------------------------------------------------------------------------------|
------------------------------------------------------------------------------|
------------------------------------------------------------------------------|
-22--22----22--22--22--22-22--22-22-22-22---22-22-22-22--22-------------------|
-00--00----00--00--00--00-00--00-00-00-00---00-00-00-00--00-------------------|


------------------------------------------------------------------------------|
------------------------------------------------------------------------------|
------------------------------------------------------------------------------|
----5-----7------9----4-----5-----7----10-----9-------------------------------|
----7-----9-----10----6-----7-----9----12----10-------------------------------|
-000--000---000----000--000---000---000--000----------------------------------|


------------------------------------------------------------------------------|
------------------------------------------------------------------------------|
------------------------------------------------------------------------------|
------------------------------------------------------------------------------|
--10----9----10----9----10---10/12--9----7----9----7----9--9/10---------------|
-----88---88----88---88----8----------77---77---77---77---7-------------------|


-----------------------------------------|------------------------------------|
-----------------------------------------|------------------------------------|
------------------------------7----------|------------------------------------|
--9------9-------9h10---7-------7----7h9-|------------------------------------|
----10-----10-------------9-------9------|-12-12------------------------------|
-------8------8-------------7------------|-10-11------------------------------|


------------------------------------------------------------|-----------------|
------------------------------------------------------------|-----------------|
------------------------------------------------------------|-----------------|
---------------------------------------------------7--------|-----------------|
-6----7----6----9----10---9---7----9----7----10---------10--|-7-910--9-10-12--|
---77---77---77---77----7---7---88---88---88----88---88----8|-8-8-8-10-10-10--|


[ Tab from: http://www.guitartabs.cc/tabs/t/trivium/if_i_could_collapse_the_masses_tab.html ]
------------------------------------------------------------------------------|
------------------------------------------------------------------------------|
------------------------5-------------4---------------------------------------|
-2-----------4--5--7----5-------------4----9--7-------------------------------|
-2-----------6--7--9----3-------------2---10--9-------------------------------|
-0-0-2-3-2-0------------3---3-3-5-3-2-2---------------------------------------|


------------------------------------------------------------------------------|
------------------------------------------------------------------------------|
-----------------------5----------4-------------------------------------------|
-2------------4-5-7----5----------4-------------------------------------------|
-2------------6-7-9----3----------2-------------------------------------------|
-0-0-2-3-2-0-----------3----------2-------------------------------------------|


---------|---------------|----------------------------------------------------|
---------|---------------|----------------------------------------------------|
----10---|----------13---|------16--------------------------------------------|
-----9---|----------12---|------15--------------------------------------------|
-----8---|----------11---|------14--------------------------------------------|
-000-----|------000------|---000----------------------------------------------|


------------------------|-------|---------------------------------------------|
------------------------|-------|---------------------------------------------|
------------------------|-------|---------------------------------------------|
------------------------|-------|---------------------------------------------|
-222-222-222-333-222-333|222-333|---------------------------------------------|
-000-000-000-111-000-111|000-111|-6^------------------------------------------|


------------------------------------------------------------------------------|
------------------------------------------------------------------------------|
------------------------------------------------------------------------------|
------------------------------------------------------------------------------|
----7-10-6---9----7-10-6---9---7-10-6---9----10-9-10-12---12-10---------------|
--0--------0----0--------0---0--------0----8------------7---------------------|


------------------------------------------------------------------------------|
------------------------------------------------------------------------------|
----------------------7-----------6-------------------------------------------|
-4-----------6--7--9--7-----------6---11---9----------------------------------|
-4-----------8--9-11--5-----------4---12--11----------------------------------|
-2-2-4-5-4------------5-5-5-7-5-4-4-------------------------------------------|


------------------------------------------------------------------------------|
------------------------------------------------------------------------------|
----------------------7-6-----------------------------------------------------|
-4----------6--7---9--7-6-----------------------------------------------------|
-4----------8--9--11--5-4-----------------------------------------------------|
-2-2-4-5-4------------5-4-----------------------------------------------------|

------------------------------------------------------------------------------|
------------------------------------------------------------------------------|
----10----10----10---10-------------------------------------------------------|
-----9-----9-----9----9------2------------------------------------------------|
-----8-----8-----8----8------2------------------------------------------------|
-000---000---000---000-------0------------------------------------------------|
Comments