Trivium - Gunshot To The Head Of Trepidation Chords & Tabs

 

Gunshot To The Head Of Trepidation Chords & Tabs

Trivium Chords & Tabs

Version: 1 Type: Tab 2 ratings
1 star 2 stars 3 stars 4 stars 5 stars
comments

Gunshot To The Head Of Trepidation Tab

   
Trivium 
Gunshot to the Head of Trepidation
Gtr.1 Corey
Gtr.2 Matt

Drop D 

Intro (A) (0:00)
Gtr.1 
e||-----------------------------------------------------------------------||
B||-----------------------------------------------------------------------||
G||-7------6-------9-------10------10///-7------6-------6///-12-----10----||
D||-x------x-------x-------x-------x-----x------x-------x----xx-----x-----||
A||-5------4-------7-------8-------8////-5------4-------4///-10-----8-----||
D||-----------------------------------------------------------------------||
  

Gtr.2
e||-----------------------------------------------------------------------||
B||-----------------------------------------------------------------------||
G||-----------------------------------------------------------------------||
D||-3------2-------5-------7-------7///-3-------2-------2///-8-----7------||
A||-x------x-------x-------x-------x----x-------x-------x----x-----x------||
D||-3------2-------5-------7-------7///-3-------2-------2///-8-----7------||


Intro (B)
Gtr.1  (0:16)
e||--------------------------------------------------------------------------------------------------||
B||--------------------------------------------------------------------------------------------------||
G||-7----------7----6---------6----9---------9----10------------------7---------7---6---------6------||
D||-x----------x----x---------x----x---------x----x-------------------x---------x---x---------x------||
A||-5----------5----4---------4----7---------7----8-------------------5---------5---4---------4------||
D||---0-0-0-0---------0-0-0-0--------0-0-0-0--------0-0-0-0-0-0-0-0-0---0-0-0-0-------0-0-0-0--------||
pm    ^ ^ ^ ^         ^ ^ ^ ^        ^ ^ ^ ^        ^ ^ ^ ^ ^ ^ ^ ^ ^   ^ ^ ^ ^       ^ ^ ^ ^



e||--------------------------------------------------------------------------------------------------||
B||--------------------------------------------------------------------------------------------------||
G||-9----------9---------------------------------------9---------9------12------10-------------------||
D||-x----------x---------------------------------------x---------x------xx------x--------------------||
A||-7----------7-----10-10-10-10-10-10-8-8-8-8-8-8-/---7---------7------10------8--------------------||
D||---0-0-0-0--------------------------------------------0-0-0-0-------------------------------------||
pm    ^ ^ ^ ^                                            ^ ^ ^ ^

Gtr 2  (0:16)
e||------------------------------------------------------------------------------------------------||
B||------------------------------------------------------------------------------------------------||
G||------------------------------------------------------------------------------------------------||
D||-3----------3----2----------2---5---------5----7-------------------3---------3----2---------2---||
A||-x----------x----x----------x---x---------x----x-------------------x---------x----x---------x---||
D||-3-0-0-0-0--3----2--0-0-0-0-2---5-0-0-0-0-5----7-0-0-0-0-0-0-0-0-0-3-0-0-0-0-3----2-0-0-0-0-2---||
PM    ^ ^ ^ ^          ^ ^ ^ ^       ^ ^ ^ ^        ^ ^ ^ ^ ^ ^ ^ ^ ^   ^ ^ ^ ^        ^ ^ ^ ^
---


Gtr 2
e||------------------------------------------------------------------------------------------------||
B||------------------------------------------------------------------------------------------------||
G||------------------------------------------------------------------------------------------------||
D||-5----------5----8-------------7----------5---------5------8--------7---------------------------||
A||-x----------x----x-------------x----------x---------x------x--------x---------------------------||
D||-5-0-0-0-0--5----8-------------7----------5-0-0-0-0-5------8--------7---------------------------||
PM    ^ ^ ^ ^                                  ^ ^ ^ ^ 


Okay this is the fast Part 
Just Tremlo Pick it and u'll but the the 
second half of is slower so do tremlo 
Do fine 

Gtr.1 (0:33)
DO this 2x
e||---------------------------------------------------------------------------------------||
B||---------------------------------------------------------------------------------------||
G||---------------------------------------------------------------------------------------||
D||----------------------------------------------------------------------7-7-----5-5------||
A||----12-12-10-10-12-12-------12-12-10-10-12-12-------12-12-10-10-12-12-----8-8-----7-7--||
D||0-0-------------------10-10-------------------12-12------------------------------------||

Then (Dont tremlo)

Gtr.1 Do this 2x
e||---------------------------------------------------||
B||---------------------------------------------------||
G||---------------------------------------------------||
D||------------------------------------7---5----------||
A||---12-10-12----12-10-12----12-10-12---8---7--------||
D||-0----------10----------12-------------------------||

Gtr.2 (2x) Tremlo
e||---------------------------------------------------------------------||
B||---------------------------------------------------------------------||
G||---------------------------------------------------------------------||
D||---------------------------------------------------------------------||
A||-----8-8-7-7-8-8-----8-8-7-7-8-8-----8-8-7-7-8-8-5-5-7-7-4-4---------||
D||-0-0-------------7-7-------------8-8---------------------------------||

Then 

Gtr.2 (2x) Dont Tremlo
e|-----------------------------------------------|
B|-----------------------------------------------|
G|-----------------------------------------------|
D|-----------------------------------------------|
A|--8-7-8---8-7-8---8-7-8-8-5-7-4----------------|
D|0-------7-------8------------------------------|

Verse

Gtr.1 (0:49,1:38)(Same speed as intro B)
e||----------------------------------------------------------------------------------------------------||
B||----------------------------------------------------------------------------------------------------||
G||-7----------7----6---------6----9---------9----10-----------7---------7---6---------6---------------||
D||-x----------x----x---------x----x---------x----x------------x---------x---x---------x---------------||
A||-5----------5----4---------4----7---------7----8------------5---------5---4---------4---------------||
D||-----0-0-------------0-0------------0-0--------------0-0-0------0-0-----------0 0-------------------||
pm     ^ ^              ^ ^            ^ ^              ^ ^ ^      ^ ^           ^ ^

Gtr.1
e||------------------------------------------------------------------------------------------------------||
B||------------------------------------------------------------------------------------------------------||
G||-9-----9--------------------7------7--6------6--9------9--10-------7------7--6-----6--9------12---10--||
D||-x-----x--------------------x------x--x------x--x------x--x--------x------x--x-----x--x------xx---x---||
A||-7-----7---10-8-8-8-8-8-8-/-5------5--4------4--7------7--8--------5------5--4-----4--7------10---8---||
D||---0-0-------------------------0-0------0-0-------0-0-------0-0-0----0-0-------0-0------0-0-----------||
pm    ^ ^                                             ^ ^ ^ ^



Gtr 2  (0:49,1:38)
e||------------------------------------------------------------------------------------------------||
B||------------------------------------------------------------------------------------------------||
G||------------------------------------------------------------------------------------------------||
D||-3----------3----2----------2---5---------5----7-------------------3---------3----2---------2---||
A||-x----------x----x----------x---x---------x----x-------------------x---------x----x---------x---||
D||-3-0-0-0-0--3----2--0-0-0-0-2---5-0-0-0-0-5----7-0-0-0-0-0-0-0-0-0-3-0-0-0-0-3----2-0-0-0-0-2---||
PM    ^ ^ ^ ^          ^ ^ ^ ^       ^ ^ ^ ^        ^ ^ ^ ^ ^ ^ ^ ^ ^   ^ ^ ^ ^        ^ ^ ^ ^
---


Gtr 2
e||------------------------------------------------------------------------------------------------||
B||------------------------------------------------------------------------------------------------||
G||------------------------------------------------------------------------------------------------||
D||-5----------5----8-------------7----------5---------5------8--------7---------------------------||
A||-x----------x----x-------------x----------x---------x------x--------x---------------------------||
D||-5-0-0-0-0--5----8-------------7----------5-0-0-0-0-5------8--------7---------------------------||
PM    ^ ^ ^ ^                                  ^ ^ ^ ^ 


Chorus(1:05,1:55)
Gtr.1
DO this 2x (Tremlo)
e||---------------------------------------------------------------------------------------||
B||---------------------------------------------------------------------------------------||
G||---------------------------------------------------------------------------------------||
D||----------------------------------------------------------------------7-7-----5-5------||
A||----12-12-10-10-12-12-------12-12-10-10-12-12-------12-12-10-10-12-12-----8-8-----7-7--||
D||0-0-------------------10-10-------------------12-12------------------------------------||

Then (Dont tremlo)

Gtr.1 Do this 2x
e||---------------------------------------------------||
B||---------------------------------------------8------||
G||---------------------------------------------9------||
D||------------------------------------7-----5--x--------||
A||---12-10-12----12-10-12----12-10-12----8-----7--------||
D||-0----------10----------12-------------------------||

Gtr.2 (2x) Tremlo
e||---------------------------------------------------------------------||
B||---------------------------------------------------------------------||
G||---------------------------------------------------------------------||
D||---------------------------------------------------------------------||
A||-----8-8-7-7-8-8-----8-8-7-7-8-8-----8-8-7-7-8-8-5-5-7-7-4-4---------||
D||-0-0-------------7-7-------------8-8---------------------------------||

Then 

Gtr.2 (2x) Dont Tremlo
e|-----------------------------------------------|
B|-----------------------------------------------|
G|-----------------------------------------------|
D|-----------------------------------------------|
A|--8-7-8---8-7-8---8-7-8-8-5-7-4----------------|
D|0-------7-------8------------------------------|


Interlude(1:22,2:11)
Gtr. 1 (2x)Both Parts
e||-------------------------------------------------------------------------------||
B||-------------------------------------------------------------------------------||
G||-10--9h10p9-----------------------9---10---9h10p9-----------------/14---12---8-||
D||-------------12-------------------------------------12---10---10---------------||
A||-----------------12--12--/13--12-----------------------------------------------||
D||-------------------------------------------------------------------------------||

Gtr 1 Continued                   Fast Part>>>>>>>>>>>>>>>>>>>>>>>>>>>>>>>>>>>>>>>>>>>>>>>>>>>>>>
e|--------------------------------------------------------------------------------------------------|
B|-10---8h10p8--------------------10--8-----------8--10--8------------11--10-8-----13-13p11p10------|
G|--------------10---7--7h9---7---------10--9--10-----------10--9--10-----------10--------------12--|
D|--------------------------------------------------------------------------------------------------|
A|--------------------------------------------------------------------------------------------------|
D|--------------------------------------------------------------------------------------------------|
Gtr 2 (2x)Both Parts
e||-------------------------------------------------------------------------------||
B||-------------------------------------------------------------------------------||
G||-10--9h10p9-----------------------9---10---9h10p9-----------------/14---12---9-||
D||-------------12-------------------------------------12---10---10---------------||
A||-----------------12--12--/13--12-----------------------------------------------||
D||-------------------------------------------------------------------------------||
[ Tab from: http://www.guitartabs.cc/tabs/t/trivium/gunshot_to_the_head_of_trepidation_tab.html ]
Gtr 2
e||-------------------------------------------------------------------------------------------------------||
B||-------------------------------------------------------------------------------------------------------||
G||-10--9h10p9-----------------------10--9------------9--10--9------------9--12-10-9----14-14--12--10-----||
D||-------------12-------------------------12--10--12----------12--10--12------------12---------------14--||
A||-----------------12--12--/13--12-----------------------------------------------------------------------||
D||-------------------------------------------------------------------------------------------------------||

Pre chorus(2:28)

Gtr.1 (2x)
e||-------------------------------------------------------------------------------||
B||-------------------------------------------------------------------------------||
G||-10--9h10p9-----------------------9---10---9h10p9-----------------/14---12---9-||
D||-------------12-------------------------------------12---10---10---------------||
A||-----------------12--12--/13--12-----------------------------------------------||
D||-------------------------------------------------------------------------------||

Gtr 1
e||-------------------------------------------------------------------------------------------------------||
B||-------------------------------------------------------------------------------------------------------||
G||-10--9h10p9-----------------------10--9------------9--10--9------------9--12-10-9----14-14--12--10-----||
D||-------------12-------------------------12--10--12----------12--10--12------------12---------------14--||
A||-----------------12--12--/13--12-----------------------------------------------------------------------||
D||-------------------------------------------------------------------------------------------------------||


Chorus 2
Gtr.1&2 (2:44,5:15,5:41)
e|-------------------------------------------------|
B|-------------------------------------------------|
G|-------------------------------------------------|
D|-3-----5-----7--------------3-----5---------------------|
A|-1-----3-----5--------------1-----3--------5----7----3----|
D|----0-----0------0000000-------0------0----5----7----3----|
pm    ^     ^      ^^^^^^^       ^      ^


Solo Rythm (3:10)
Gtr.1
e|-----------------------------------------------------------------|
B|---------------------------------------------------------|
G|--------------------------------------------------|
D|----------------------------------------------------|
A|-------5-----3-----6-5-----3--4--5--------5-----3----6-5-----5------3--4--5---|
D|-0-0-0---0-0---0-0-----0-0-3--4--5--0-0-0---0-0---0-0----0-0---0-0--3--4--5---|
pm ^ ^ ^   ^ ^   ^ ^     ^ ^          ^ ^ ^   ^ ^   ^ ^    ^ ^   ^ ^

Gtr.2(2x)
e|------------------------------------------------------------------------------|
B|------------------------------------------------------------------------------|
G|------------------------------------------------------------------------------|
D|------------------------------------------------------------------------------|
A|-0---------------------0---3--4--5--0--------------------------0----3--4--5---|
d|-0---------------------0---3--4--5--0--------------------------0----3--4--5---|
Pm ^                     ^            ^                          ^


both Gtr
e|------------------------------------------------------------------|
B|------------------------------------------------------------------|
G|------------------------------------------------------------------|
D|-7------0-------5--------0---------5------------------------------|
A|-5------0-------3--------0---------2------------------------------|
D|------------------------------------------2--3--4--5--------------|



100% Correct Really fast as hell
Guitar solo (3:24)
Gtr.1
e|-18-15----------------------------------15-18-14-17p14----------14///8------------|
B|-------16-15----------------------15-16----------------15----15--------10p7-------|
G|-------------15-12----------12-15-------------------------14----------------8p7---|
D|-------------------13-12-13-------------------------------------------------------|
A|----------------------------------------------------------------------------------|
D|----------------------------------------------------------------------------------|

Gtr.1 contined
e|--------------------------------------------------------8---------------10-11-13-11-10-------------10-11/15-15-|
B|------------------------------8---------8-10-11-8-10-11---11-10-8-11-13----------------13-11-10-13-------------|
G|--------7---------7-10p7h8h10---10-8-10------------------------------------------------------------------------|
D|-7-8-10---10-7-10----------------------------------------------------------------------------------------------|
A|---------------------------------------------------------------------------------------------------------------|
D|---------------------------------------------------------------------------------------------------------------|



Gtr.1
e|-13-11----------13/17-17-15-13-------------13-15/19-17-15-------------15-17/21-20-18-----------------------18--20bbbb--|
B|-------15-13-15----------------16-15-13-16----------------18-16-15-18----------------12-17-17-20-20-20b20br------------|
G|-----------------------------------------------------------------------------------------------------------------------|
D|-----------------------------------------------------------------------------------------------------------------------|
A|-----------------------------------------------------------------------------------------------------------------------|
D|-----------------------------------------------------------------------------------------------------------------------|
                                                        

Gtr.2 Solo (3:37)
e|--------------------------------------8-------------------------------------10h13-10-------------------------------------|
B|---------11---------10-----------/8-8---8-6-5h6p5----------------------10h13--------13p1013p10---------------------------|
G|-10-9-10-----/9-9-7-----/7-7-5-7------------------7-5-7/10---------9h12-----------------------12p10h12p10----------------|
D|---------------------------------------------------------------8h12---------------------------------------12b--12-12b-10-|
A|-----------------------------------------------------------8-12----------------------------------------------------------|
D|-------------------------------------------------------------------------------------------------------------------------|

Gtr.2
e|-------------------------10-10-13-12-10---12-12-15-13-12---13-13-17-15-13-15/18-17------------------------|
B|--------10-----10----10--13------------13-15b-----------15-16b---------------------18---------------------|
G|--------10-----10-12-13b--------------------------------------------------------------17/12----12h14------|
D|-12-0-0----0-0--------------------------------------------------------------------------------------------|
A|----------------------------------------------------------------------------------------------------------|
D|----------------------------------------------------------------------------------------------------------|

Gtr.1 hellishly Fast
e|--------------------------------------------------------------------------------------------------------------------------|
B|-----------------------------------------8-10-11-8-10-11-13-11-10----11-10------------------------------------------------|
G|---------------------------7-9-10-7-9-10--------------------------12-------12-10-14-12-10----12-10-------10---------------|
D|-------------7-8-10-7-8-10----------------------------------------------------------------14-------14-12----14-12-10------|
A|-5-7-8-5-7-8---------------------------------------------------------------------------------------------------------14-12|
D|--------------------------------------------------------------------------------------------------------------------------|

Gtr.2
e|-10---10----12----12-----13----13-----15----15-----17\\\\----|
B|-13b--13b---15b---15b----16b---16b----18b---18br-------------|
G|-------------------------------------------------------------|
D|-------------------------------------------------------------|
A|-------------------------------------------------------------|
D|-------------------------------------------------------------|

Harm Solo 
Gtr.1 (4:03)
e|------------------------------------------------------------------------------------------------|
B|----------------------------------------------------------15------------------------------------|
G|-------14----------------------14-17-15h17p15p14----15-17----17-14-------------14---------------|
D|----15----17-14----14h15-15-17-------------------17----------------17-15-15-17----17-17-15-14---|
A|-17-------------15------------------------------------------------------------------------------|
D|------------------------------------------------------------------------------------------------|
Gtr.1 Continued
e|-------------------------------------------------------------------------------|
B|----------------------------------------------------17-------17-----17b--17br--|
G|-------14----------------------14-17-15h17p15p14-------14-------14-------------|
D|----15----17-14----14h15-15-17-------------------17-------17-------17----------|
A|-17-------------15-------------------------------------------------------------|
D|-------------------------------------------------------------------------------|

Gtr.2
e|-----------------------------------------------------------------------------------------------|
B|-----------------------------------------------------------------------------------------------|
G|-------------------------------14-12h14p12-------12-14-15-14-----------------------------------|
D|----12-15-14------/12-12-14-15-------------15-14-------------15-14-12-15-17-14-12-------12-15--|
A|-13----------15-12----------------------------------------------------------------15-13--------|
D|-----------------------------------------------------------------------------------------------|
Gtr.2
e|----------------------------------------------------------------------------|
B|----------------------------------------------------------------------------|
G|-----------------------14-12h14p12------------------------------------------|
D|-14-------/12-12-14-15-------------15-14--17-------17-------17b-17br--------|
A|----15-12------------------------------------15-14----15-14-----------------|
D|----------------------------------------------------------------------------|

Gtr.1(2X)
e|------------------------------------------------------------------------------------------------|
B|------------------------------------------------------------------------------------------------|
G|------------------------10-9-7------------------10-------12br-10----------10-------12br-10------|
D|-------7-5-7--/10-7---7--------10-7-10/12-12-12----12-12---------12-12-12----12-12--------------|
A|-8-7-8--------------8---------------------------------------------------------------------------|
D|------------------------------------------------------------------------------------------------|
Gtr.2 (2X)
e|------------------------------------------------------------------------------------------------|
B|----------------------------------------------------------10------11b-10-------------10-------11br-10/11--|
G|-------------------------------14-12-10----------10-10-10---10-10--------10-10-10-10----10-10-------------|
D|----------10----10-14-12----10----------14-10-14----------------------------------------------------------|
A|-12-10-12----13----------12-------------------------------------------------------------------------------|
D|----------------------------------------------------------------------------------------------------------|

both
e|-12p10-------13p10h13p10-------13p12-------15p12h15p12-------15-12-13p10----10------------------------------------------------|
B|-------11-11-------------11-11-------13-13-------------13-13-------------13---13p10h13p10---10-----------------------13p10-13b|
G|------------------------------------------------------------------------------------------12--12p10h12p10--10-12br-10---------|
D|---------------------------------------------------------------------------------------------------------12-------------------|
A|------------------------------------------------------------------------------------------------------------------------------|
D|------------------------------------------------------------------------------------------------------------------------------|
Breakdown
both(4:50)(4x
e|-----------------------------------------------------------------------------------|
B|-----------------------------------------------------------------------------------|
G|-----------------------------------------------------------------------------------|
D|-3-------------5---------------7---------------4th---------------------------------|
A|-1-------------3---------------5---------------time--------------------------------|
D|--------0--------------0-----------------0-0-0-0-0-0-0--pick scrape----------------|




So there it is have fun this song is 100% correct great song
My e-mail is lusifers_gates@yahoo.com
Comments