Trivium - End Of Everything Chords & Tabs

 

End Of Everything Chords & Tabs

Trivium Chords & Tabs

Version: 1 Type: Tab 0 ratings
1 star 2 stars 3 stars 4 stars 5 stars
comments

End Of Everything Tab

Trivium - The End of Everything
Ascendancy

Tuning - Drop-D
there are piano parts in the song but i got what i could hope you like it


Intro Part 1:
E|-------------------------------------------------------------------|
B|-------------------------------------------------------------------|
G|-------------------------------------------------------------------|
D|-------------------------------------------------------------------|
A|----1---1---1---1---0---0---0---0---1---1---1---1---0---0---0---0--|
D|--0---0---0---0---0---0---0---0---0---0---0---0---0---0---0---0----|

Intro Part 2:
E|-------------------------18----17--15--18p17-18p17-----------------|
B|-------------------------------------------------------------------|
G|-10-9-7-6-7----12--10----------------------------------------------|
D|--x-x-x-x-x-----x---x----------------------------------------------|
A|--8-7-5-4-5----10---8----------------------------------------------|
D|-------------------------------------------------------------------|

Verse:
E|---17-15-----17---17-15------------18-17-15---------18p17-18p17----|
B|-15-----17-18---15-----17-18-15--15---------18-17-18---------------|
G|-------------------------------------------------------------------|
D|-------------------------------------------------------------------|
A|-------------------------------------------------------------------|
D|-------------------------------------------------------------------|
[ Tab from: http://www.guitartabs.cc/tabs/t/trivium/end_of_everything_tab.html ]
E|---17-15-----17---17-15------------17-15-----17---17-15------------|
B|-15-----17-18---15-----17-18-15--15-----17-18---15-----17-18-15----|
G|-------------------------------------------------------------------|
D|-------------------------------------------------------------------|
A|-------------------------------------------------------------------|
D|-------------------------------------------------------------------|

Bridge:
E|--------------------------18---17--15--18p17-18p17-----------------|
B|-------------------------------------------------------------------|
G|-10-9-7-6-7----12--10----------------------------------------------|
D|--x-x-x-x-x-----x---x----------------------------------------------|
A|--8-7-5-4-5----10---8----------------------------------------------|
D|-------------------------------------------------------------------|

Verse:
E|---17-15-----17---17-15------------18-17-15---------18p17-18p17----|
B|-15-----17-18---15-----17-18-15--15---------18-17-18---------------|
G|-------------------------------------------------------------------|
D|-------------------------------------------------------------------|
A|-------------------------------------------------------------------|
D|-------------------------------------------------------------------|

E|---17-15-----17---17-15------------17-15-----17---17-15------------|
B|-15-----17-18---15-----17-18-15--15-----17-18---15-----17-18-15----|
G|-------------------------------------------------------------------|
D|-------------------------------------------------------------------|
A|-------------------------------------------------------------------|
D|-------------------------------------------------------------------|

Outro:
E|---17-15-----17---17-15------------17-15-----17---17-15-----22-----|
B|-15-----17-18---15-----17-18-15--15-----17-18---15-----17-18-------|
G|-------------------------------------------------------------------|
D|-------------------------------------------------------------------|
A|-------------------------------------------------------------------|
D|-------------------------------------------------------------------|
Comments