Trivium - Dying In Your Arms Chords & Tabs

 

Dying In Your Arms Chords & Tabs

Trivium Chords & Tabs

Version: 2 Type: Tab 0 ratings
1 star 2 stars 3 stars 4 stars 5 stars
comments

Dying In Your Arms Tab

Artist-Trivium
Track-Dying In Your Arms (Intro)

Any comments, questions or queries then mail me at ruled_by_secrecy_6@hotmail.com

This part it also played in the choruses
Gtr.1
e|------------------15--------|--------------------------------|
B|--13----12--13~-------13~---|----12------12--13--12----------|
G|----------------------------|--------14--------------14--12--|
D|----------------------------|--------------------------------|
A|----------------------------|--------------------------------|
D|----------------------------|--------------------------------|

e|----------------------------|--------------------------------|
B|--13----12--13~---12--13~---|----12------12--13--12----------|
G|----------------------------|--------14--------------14--12--|
D|----------------------------|--------------------------------|
A|----------------------------|--------------------------------|
D|----------------------------|--------------------------------|

e|------------------15--------|--------------------------------|
B|--13----12--13~-------13~---|----12------12--13--12----------|
G|----------------------------|--------14--------------14--12--|
D|----------------------------|--------------------------------|
A|----------------------------|--------------------------------|
D|----------------------------|--------------------------------|
[ Tab from: http://www.guitartabs.cc/tabs/t/trivium/dying_in_your_arms_tab_ver_2.html ]
e|----------------------------|--------------------------------|
B|--13----12--13~---12--13~---|----12------12--13--12----------|
G|----------------------------|--------14--------------14--12--|
D|----------------------------|--------------------------------|
A|----------------------------|--------------------------------|
D|----------------------------|--------------------------------|

Gtr.2
e|-------------------------|--------------------------|
B|-------------------------|--------------------------|
G|-------------------------|--------------------------|
D|--7----7--7--7--7--7--7--|--2--2--2--2--2--2--2--2--|
A|--7----7--7--7--7--7--7--|--2--2--2--2--2--2--2--2--|
D|--7----7--7--7--7--7--7--|--2--2--2--2--2--2--2--2--|

e|-------------------------|--------------------------|-------------------------|
B|-------------------------|--------------------------|-------------------------|
G|-------------------------|--------------------------|-------------------------|
D|--3----3--3--3--3--3--3--|--5--5--5--5--2--2--2--2--|--7----7--7--7--7--7--7--|
A|--3----3--3--3--3--3--3--|--5--5--5--5--2--2--2--2--|--7----7--7--7--7--7--7--|
D|--3----3--3--3--3--3--3--|--5--5--5--5--2--2--2--2--|--7----7--7--7--7--7--7--|

e|--------------------------|-------------------------|--------------------------|
B|--------------------------|-------------------------|--------------------------|
G|--------------------------|-------------------------|--------------------------|
D|--2--2--2--2--2--2--2--2--|--3----3--3--3--3--3--3--|--5--5--5--5--2--2--2--2--|
A|--2--2--2--2--2--2--2--2--|--3----3--3--3--3--3--3--|--5--5--5--5--2--2--2--2--|
D|--2--2--2--2--2--2--2--2--|--3----3--3--3--3--3--3--|--5--5--5--5--2--2--2--2--|
Comments