Trivium - Dying In Your Arms Chords & Tabs

 

Dying In Your Arms Chords & Tabs

Trivium Chords & Tabs

Version: 1 Type: Tab 1 rating
1 star 2 stars 3 stars 4 stars 5 stars
comments

Dying In Your Arms Tab

Intro/Chorus
    Gtr I
||---------------15---------------------------------------------------------------------------||
||o-13---12-13------13-----12----12-13-12--------13---12-13---12-13-----12----12-13-12-------o||
||----------------------------14----------14-12----------------------------14----------14-12--||
||--------------------------------------------------------------------------------------------||
||o------------------------------------------------------------------------------------------o||
||--------------------------------------------------------------------------------------------||
|
|   Gtr II
||--------------------------------------------------------------------------------------------||
||o------------------------------------------------------------------------------------------o||
||--------------------------------------------------------------------------------------------||
||---7-7--7--7-7--7--7---2--2--2--2--2--2--2--2---3-3--3--3-3--3--3---5--5--5--5--2--2--2--2--||
||o--7-7--7--7-7--7--7---2--2--2--2--2--2--2--2---3-3--3--3-3--3--3---5--5--5--5--2--2--2--2-o||
||---7-7--7--7-7--7--7---2--2--2--2--2--2--2--2---3-3--3--3-3--3--3---5--5--5--5--2--2--2--2--||

Verse
 Gtrs I, II
  PM----M-----M-----M-------|
|------------------------------|----|
|------------------------------|----|
|------------------------------|----|
|-7-7---2-2---3-3---5-5---2-2--|----|
|-7-7---2-2---3-3---5-5---2-2--|----|
|-7-7---2-2---3-3---5-5---2-2--|----|

Prechorus
  Gtr I
|--------------------|--------------------|
|--------------------|--------------------|
|-9-9-9-7-7-12-12-12-|-9-9-9-7-7-12-12-12-|
|--------------------|--------------------|
|-7-7-7-5-5-10-10-10-|-7-7-7-5-5-10-10-10-|
|--------------------|--------------------|
|
| Gtr II
|--------------------|--------------------|
|--------------------|--------------------|
|--------------------|--------------------|
|-7-7-7-7-7--7--7--7-|-7-7-7-7-7--7--7--7-|
|-7-7-7-7-7--7--7--7-|-7-7-7-7-7--7--7--7-|
|-7-7-7-7-7--7--7--7-|-7-7-7-7-7--7--7--7-|

[ Tab from: http://www.guitartabs.cc/tabs/t/trivium/dying_in_your_arms_tab.html ]
|--------------------|--------------------|
|--------------------|--------------------|
|-9-9-9-7-7-12-12-12-|-9-9-9-7-7-12-12-12-|
|--------------------|--------------------|
|-7-7-7-5-5-10-10-10-|-7-7-7-5-5-10-10-10-|
|--------------------|--------------------|
|
|--------------------|--------------------|
|--------------------|--------------------|
|--------------------|--------------------|
|-0-0-0-0-0--0--0--0-|-0-0-0-0-0--0--0--0-|
|-0-0-0-0-0--0--0--0-|-0-0-0-0-0--0--0--0-|
|-0-0-0-0-0--0--0--0-|-0-0-0-0-0--0--0--0-|


  Gtr I
|--------------------|--------------------|
|--------------------|--------------------|
|-9-9-9-7-7-12-12-12-|-9-9-9-7-7-12-12-12-|
|--------------------|--------------------|
|-7-7-7-5-5-10-10-10-|-7-7-7-5-5-10-10-10-|
|--------------------|--------------------|
|
| Gtr II
|--------------------|--------------------|
|--------------------|--------------------|
|--------------------|--------------------|
|-3-3-3-3-3--3--3--3-|-3-3-3-3-3--3--3--3-|
|-3-3-3-3-3--3--3--3-|-3-3-3-3-3--3--3--3-|
|-3-3-3-3-3--3--3--3-|-3-3-3-3-3--3--3--3-|


|--------------------|--------------------|
|--------------------|--------------------|
|-9-9-9-7-7-12-12-12-|-9-9-9-7-7-12-12-12-|
|--------------------|--------------------|
|-7-7-7-5-5-10-10-10-|-7-7-7-5-5-10-10-10-|
|--------------------|--------------------|
|
|--------------------|--------------------|
|--------------------|--------------------|
|--------------------|--------------------|
|-5-5-5-5-5--5--5--5-|-2-2-2-2-2--2--2--2-|
|-5-5-5-5-5--5--5--5-|-2-2-2-2-2--2--2--2-|
|-5-5-5-5-5--5--5--5-|-2-2-2-2-2--2--2--2-|


 Chorus


 Verse

 Prechorus

 Chorus   4x                                                                                        
 
Bridge
       PM   PM             PM   PM
||--------------------|--------------------||----|
||o-------------------|-------------------o||----|
||--------------------|--------------------||----|
||--7--0-2--0-3-(3)---|-7--0-2--0-5-(5)----||----|
||o-7--0-2--0-3-(3)---|-7--0-2--0-5-(5)---o||----|
||--7--0-2--0-3-(3)---|-7--0-2--0-5-(5)----||----|
|


Rhythm behind the solo
    PM|             PM|          PM|             PM|    PM      PM
||--------------------------------------------------------------------||-|
||o------------------------------------------------------------------o||-|
||------10-12--14-------7-9--5-------9-10--12--------12---14-12---10--||-|
||--------------------------------------------------------------------||-|
||o-0-0--8-10--12---0-0-5-7--3---0-0-7--8--10----0-0-10-0-12-10-0--8-o||-|
||--0-0-------------0-0----------0-0-------------0-0----0-------0-----||-|
Comments