Trivium - Departure Chords & Tabs

 

Departure Chords & Tabs

Trivium Chords & Tabs

Version: 1 Type: Tab 0 ratings
1 star 2 stars 3 stars 4 stars 5 stars
comments

Departure Tab

   
-----------------------------------------------------------------------------
	             	     Departure - Trivium
-----------------------------------------------------------------------------
Tabbed by: Jamie
Submitted by: sam b


Tuning: Drop D.   D,A,D,G,B,e
----------------------------------------------------------------------------
| ... Palm Mute
| 2:87 Time in song
| /  slide up
| \  slide down
| h  hammer-on
| p  pull-off
| ~  vibrato
| +  harmonic
| x  Mute note
----------------------------------------------------------------------------
 Intro.  Rhythm guitar
  0:00-0:29
e|-----------------------------------------------------------------|
B|-----------------------------------------------------------------|
G|-----------------------------------------------------------------|
D|--0---2---3---5-7--8--10--0--------------------------------------|
A|--0---2---3---5-7--8--10--0----x2--------------------------------|
D|--0---2---3---5-7--8--10--0--------------------------------------|

 Verse Part 1.
  Lead guitar-Clean
  0:34-0:56
e|-------0-------0----------------------------------------------------------|
B|------6-------6-----------------------------------------------------------|
G|-----7-------7-------7--------9-------------------------------------------|
D|----7-------7-------8-------10-------x4-----------------------------------|
A|---5-------5-------8------10----------------------------------------------|
D|------------------8-----10------------------------------------------------|

 Verse Part 1 cont.
  Rhythm guitar-Distortion
  0:46-0:56
e|--------------------------------------------------------------------------|
B|--------------------------------------------------------------------------|
G|--------------------------------------------------------------------------|
D|--0--7-8-10---------------------------------------------------------------|
A|--0--7-8-10-----x2--------------------------------------------------------|
D|--0--7-8-10---------------------------------------------------------------|

 Verse Part 2.
  Rhythm + Lead guitar-Distortion
  0:56-1:08
e|--------------------------------------------------------------------------|
B|--------------------------------------------------------------------------|
G|--------------------------------------------------------------------------|
D|---777777-777777-888888-101010101010--------------------------------------|
A|---555555-777777-888888-101010101010----x2--------------------------------|
D|----------777777-888888-101010101010--------------------------------------|
  PM ...... ...... ...... ............
[ Tab from: http://www.guitartabs.cc/tabs/t/trivium/departure_tab.html ]
 Pre-Chorus
  Rhythm + Lead guitar-Distortion
  1:08-1:19
e|--------------------------------------------------------------------------|
B|--------------------------------------------------------------------------|
G|--------------------------------------------------------------------------|
D|---000000-0---888888-8---777777-7-----------------------------------------|
A|---000000-0---888888-8---777777-7----x2-----------------------------------|
D|---000000-0---888888-8---777777-7-----------------------------------------|
  PM ......     ......     ......

 Back to Verse Part 1. 1:19-1:41
 Verse Part 2. 1:41-1:51
 Then Pre-Chorus x4. 1:51-2:13

 Chorus
  Rhythm + Lead guitar-Distortion
  2:13-2:35
e|--------------------------------------------------------------------------|
B|--------------------------------------------------------------------------|
G|--------------------------------------------------------------------------|
D|---8--10--12--7--8--10---0--000--0--000--0--------------------------------|
A|---8--10--12--7--8--10---0--000--0--000--0---x2---------------------------|
D|---8--10--12--7--8--10---0--000--0--000--0--------------------------------|
  PM                          ...     ...

 Then
  2:35-3:03
e|--------------------------------------------------------------------------|
B|--------------------------------------------------------------------------|
G|--------------------------------------------------------------------------|
D|---3--------3/6--------6/7------------------------------------------------|
A|---1--------1/4--------4/5--------33-3-22---------------------------------|
D|-----000000-----000000-----000000-33-3-22---------------------------------|
  PM   ......     ......     ......

 Then
  Lead guitar.
  3:03-3:21
e|--------------------------------------------------------------------------|
B|--------------------------------------------------------------------------|
G|---3---5---7/-------------------------------------------------------------|
D|---x---x---x/-------------------------------------------------------------|
A|---1---3---5/--000000000000000--------------------------------------------|
D|---------------000000000000000--------------------------------------------|
  PM             ...............

  Rhythm guitar.
  3:03-3:21
e|--------------------------------------------------------------------------|
B|--------------------------------------------------------------------------|
G|--------------------------------------------------------------------------|
D|---3---4---7/-------------------------------------------------------------|
A|---1---6---5/--000000000000000--------------------------------------------|
D|---------------000000000000000--------------------------------------------|
  PM             ...............
       -------------
 Solo 3:49-4:08
  Sorry but no solo tabbed!
       -------------
 Then after solo
  Clean guitar
  4:10-4:21
e|--------------------------------------------------------------------------|
B|------6---6-6~--------------------6---6-6~--------------------------------|
G|------7---7-7~----7-----9--9~-----7---7-7~----7-----9--9h10p9-/-7~--------|
D|----7---7---------8----10-10~---7---7---------8----10---------------------|
A|----5---5-------8---10----------5---5-------8---10------------------------|
D|----------------8---10----------------------8---10------------------------|

 Pre-Chorus x4. 4:21-4:43
 Chorus x4. 4:43-5:28

 End On
e|-----------|
B|-----------|
G|-----------|
D|----0------|
A|----0------|
D|----0------|


=============================================================================
Comments