Trivium - Deceived Chords & Tabs

 

Deceived Chords & Tabs

Trivium Chords & Tabs

Version: 2 Type: Tab 0 ratings
1 star 2 stars 3 stars 4 stars 5 stars
comments

Deceived Tab

just the very first part, thought this sounded better than the other one.


-------------------------------------------------------------------------------
			     The Deceived(Intro) - Trivium
-------------------------------------------------------------------------------
Tabbed by: Louis
Email: god_of_fire16@hotmail.com

Tuning: DADGBe
[ Tab from: http://www.guitartabs.cc/tabs/t/trivium/deceived_tab_ver_2.html ]
Riff 1 (3x)
(0:00-0:26)
e|-------------------------------------------------------------------------|
B|-------------------------------------------------------------------------|
G|-------------------6-----------------------------------------------------|
D|-4-4-4-4-4-4-4h6h7-6--4-4-4-0-7-6-4-2-4----------------------------------|
A|-4-4-4-4-4-4-4h6h7-4--4-4-4-0-7-6-4-2-4----------------------------------|
D|-4-4-4-4-4-4-4h6h7----4-4-4-0-7-6-4-2-4----------------------------------|

e|-------------------------------------------------------------------------|
B|-------------------------------------------------------------------------|
G|-------------------6-----------------------------------------------------|
D|-4-4-4-4-4-4-4h6h7-6--4-4-4-0--------------------------------------------|
A|-4-4-4-4-4-4-4h6h7-4--4-4-4-0--------------------------------------------|
D|-4-4-4-4-4-4-4h6h7----4-4-4-0--------------------------------------------|
Comments