Trivium - Deceived Chords & Tabs

 

Deceived Chords & Tabs

Trivium Chords & Tabs

Version: 1 Type: Tab 0 ratings
1 star 2 stars 3 stars 4 stars 5 stars
comments

Deceived Tab

   
TRIVIUM - THE DECEIVED
From the album ASCENDANCY (track 9)
RoadRunner Records 2005
Tabbed by: Erik "theonemanorgy"

This is my first tab. It sounds good enough to me. Feel free 
correct it.

Tuning: DROP D - D A D G B e

Key:
. = mute
t = tremolo pick
p = pull off
h = hammer on

  Intro:
Riff 1
e|--------------------------------|
B|--------------------------------|
G|--------------------------------|
D|-4-444-444-444-444-444-4h6h7-4--|
A|-4-444-444-444-444-444-4h6h7-4--|
D|-4-444-444-444-444-444-4h6h7-4--| 
     ... ... ... ... ...
[ Tab from: http://www.guitartabs.cc/tabs/t/trivium/deceived_tab.html ]
Riff 2
e|--------------------------------|
B|--------------------------------|
G|--------------------------------|
D|-4-444-444-444--------------2/4-|
A|-4-444-444-444--------------2/4-|
D|-4-444-444-444-00007777-664/2/4-|
   . ... ... ... tttttttt

Riff 1
e|--------------------------------|
B|--------------------------------|
G|--------------------------------|
D|-4-444-444-444-444-444-4h6h7-4--|
A|-4-444-444-444-444-444-4h6h7-4--|
D|-4-444-444-444-444-444-4h6h7-4--| 
     ... ... ... ... ...
Riff 3
e|--------------------------------|
B|--------------------------------|
G|--------------------------------|
D|-4-444-444-444-0----------------|
A|-4-444-444-444-0----------------|
D|-4-444-444-444-0----------------|  
   . ... ... ...
(Lyrics start here)
Riff 1
Riff 2
Riff 1
Riff 3
(Don't have the rest yet, maybe someone else can help, especially with the solo)

AMAZING BAND! Great song. These guys have true potential.
Comments