Trivium - Blinding Tears Will Break The Skies Chords & Tabs

 

Blinding Tears Will Break The Skies Chords & Tabs

Trivium Chords & Tabs

Version: 1 Type: Bass Tab

Blinding Tears Will Break The Skies Bass Tab

   
Trivium's bassist Paulo plays a 5-string live and in some songs but this song is played 
a 4-string in Drop-D.

Intro
|----------------|
|-H---P---H---P--|
|7-8-7-0-3-7-3-0-|
|----------------|

Verse
|----------------|-------------------|
|--------5-------|-------------------|
|5---------------|----8---------7----|
|--0-0-0---0-0-0-|8-8---8-10-10---10-|

|----------------|----------------|
|--------5-------|-H---P---H---P--|
|5---------------|7-8-7-0-3-7-3-0-|
|--0-0-0---0-0-0-|----------------|

Pre-Chorus
|--------------------------------|
|--------------------------------|
|--------7-8-7-0---------7-8-7-0-|
|000-000---------000-000---------|

|--------------------------------------|
|--------------------------------------|
|--------7-8-7-0---------------7-8-7-0-|
|888-888---------101010-101010---------| 10's, not 1 then 0

Chorus 1
|----------------|----------------|
|----------------|----------------|
|----------------|8---8-----------|
|0---000---0-0---|------8---8-8---|

|----------------|------------------|
|----------------|------------------|
|----------------|8---8-10--10-10---|
|0---000---0-0---|------------------|

Chorus 2
[ Tab from: http://www.guitartabs.cc/tabs/t/trivium/blinding_tears_will_break_the_skies_btab.html ]
|----------------|----------------|----------------|----------------|
|----------------|----------------|----------------|----------------|
|1-1-1-1-1-1-1-1-|3-3-3-3-3-3-3-3-|----------------|----------------|
|----------------|----------------|0-0-0-0-0-0-0-0-|0-0-0-0-0-0-0-0-|

Breakdown

|----------------|----------------|----------------|----------------|
|----------------|----------------|----------------|----------------|
|----.-----------|----.-----------|----.-----------|----.-----------|
|00-00-----------|00-00-----------|00-00-----------|00-00-----------|

Bridge
(---3---)(---3---) (---3---)(---3-------|
|------------------|--------------------|
|------------------|--------------------|
|---------0--------|---------1--0-------|
|0--2--3-----3--2--|0--2--3--------3----|

Fill

|--------|
|.---.---|
|0---0---|
|--------|

Order:

Intro      x1
Verse      x4
Pre-Chorus x4
Chorus 1   x2
Chorus 2   x4
Verse      x4
Pre-Chorus x4
Chorus 1   x2
Chorus 2   x4
Breakdown  x4
Bridge     x2
Breakdown  x2
Bridge     x4
Bridge     x4 (Guitar Solo)
Fill       x1
Chorus 1   x2
Chorus 2   x4
Breakdown  x2 (Outro)


|----------------|
|----------------|
|-H---P---H---P--|Hammer On/Pull Off
|0-1-2-1-0-1-2-1-|

|----------------|
|----------------|Staccato
|.---.---.---.---|(Choke Note)
|0---1---0---1---|

(---3---)(---3-------|
|--------------------|
|--------------------|
|--------------------|Triplets
|0--1--2--0--1--2----|