Trivium - Ashes Chords & Tabs

 

Ashes Chords & Tabs

Trivium Chords & Tabs

Version: 4 Type: Tab 0 ratings
1 star 2 stars 3 stars 4 stars 5 stars
comments

Ashes Tab

   
-------------------------------------------------------------------------------
			     ASHES - Trivium
-------------------------------------------------------------------------------
Tabbed by: GuitarHero_JP
Email: j.proudlove@hotmail.co.uk

Guitar I, Matt Heafy: e B G D A e
Guitar II, Matt Heafy: e B G D A e

Q=74

Part I 4/4
Guitar I
  e e e e e e e  S S   e e e e e e e e   e e e e e e e e   e e e e e e e e
|--------------------|-----------3-2-3-|-----------------|-----------------|
|*----3-------3-3h5-|-3---3-----------|-----------------|----------------*|
|---0---0---0--------|-----------------|---------4---4---|-----0-------0---|
|-2-------2----------|---2---2---------|-4-5---4---7---7-|-5-4---4-5-7---7-|
|*-------------------|-3-------3-------|-----5-----------|----------------*|
|--------------------|-----------------|-----------------|-----------------| x2
|
|
|Guitar II
| e e e e e e Q         Q.   Q   e  e e   e e Q  Q.  e     e e e e e e e e
|-----7-------7------|-10----8---7------|----------------|-----0-------0---|
|*7-8---8-7-8--------|-------------10-8-|-7-8----8-------|---3-------7---7*|
|--------------------|------------------|-----7------7---|-7-----7-9-------|
|--------------------|------------------|----------------|-----------------|
|*-------------------|------------------|----------------|----------------*|
|--------------------|------------------|----------------|-----------------| x2
[ Tab from: http://www.guitartabs.cc/tabs/t/trivium/ashes_tab_ver_4.html ]
                                                            ________________
Part II                                                    |1.
Guitar I
  e e e e e e e  S S   e e e e e e e e   e e e e e e e e    e e Q    H
|--------------------|-----------7-6-7-|------------------|-----------------|
|-----7-------7-7h9-|-7---7-----------|------------------|-----------------|
|---8---8-6-8--------|-----------------|-----8-----8------|-----------------|
|-6------------------|---6---6---------|---5-----5-----5--|-----------------|
|--------------------|-7-------7-------|-6-----6-----6----|---6-4-----------|
|--------------------|-----------------|------------------|-4--------4------|
|
|
|Guitar II
|  e  e  e  e  e  e  e  e    Q.    Q    e  e  e    e  e  e  e  e  e  e  e
|-------11----------11----|-14----12---11-------|-------------11----------|
|-11-12----12-11-12----12-|---------------14-12-|-11-12-11-------11----11-|
|-------------------------|---------------------|----------12-------12----|
|-------------------------|---------------------|-------------------------|
|-------------------------|---------------------|-------------------------|
|-------------------------|---------------------|-------------------------|

 _______________
|1.
----------------|
-------9-9------|
-----8----------|
-6-6------------|
----------------|
----------------|

 _________________
|2.
Guitar I
  e e Q    H
|-----------------|
|-----------------|
|-----------------|
|-----------------|
|---6-4-----------|
|-4--------4\__---|
|
|
|Guitar II
| e e e e H
|----------------|
|-------9-9\__---|
|-----8----------|
|-6-6------------|
|----------------|
|----------------|

| /  slide up
| \  slide down
| H  hammer-on
| p  pull-off
| ~  vibrato
| +  harmonic
| x  Mute note
| \__ Whammy Bar Dive
===============================================================================
Comments