Trivium - Ashes Chords & Tabs

 

Ashes Chords & Tabs

Trivium Chords & Tabs

Version: 1 Type: Tab 0 ratings
1 star 2 stars 3 stars 4 stars 5 stars
comments

Ashes Tab

This is an easy one to tab but it sounds great. enjoy




|---------------|---------------|---------------------------| 
|--------0------|--------0------|--3--------1--1--0---------|
|-----0-----0---|-----0-----0---|--------0-----------2--0---|
|--4------------|--4------------|-----2---------------------|
|---------------|---------------|---------------------------|
|---------------|---------------|---------------------------|


|---------------|---------------|---------------------------|
|---------------|---------------|---------------------------|
|-----0---------|--0------------|-----------------0-----0---| x2
|--4-----0------|-----0-----0---|--4-----2-----4-----4------|
|-----------2---|--------2------|-----5-----5---------------|
|---------------|---------------|---------------------------|



here comes the second part
[ Tab from: http://www.guitartabs.cc/tabs/t/trivium/ashes_tab.html ]
|-------------------|-------------------|--10--------8--8---------------|
|----------11-------|----------11-------|---------8--------12--10-------|
|--10--11------11---|--10--11------11---|------9-------------------12---|
|-------------------|-------------------|-------------------------------|
|-------------------|-------------------|-------------------------------|
|-------------------|-------------------|-------------------------------|


|-------------------|-------------------|-----------0--0--------------|
|-------------------|--12---------------|--------0--------------------|
|--11--12--11-------|------11------11---|--0--2-----------------------| x2
|--------------13---|----------13-------|-----------------------------|
|-------------------|-------------------|-----------------------------|
|-------------------|-------------------|-----------------------------|

Comments