Trivium - Anthem We Are The Fire Chords & Tabs

 

Anthem We Are The Fire Chords & Tabs

Trivium Chords & Tabs

Version: 1 Type: Bass Tab 0 ratings
1 star 2 stars 3 stars 4 stars 5 stars
comments

Anthem We Are The Fire Bass Tab

Intro

G|----------------------------------------------------------------|
D|----------------------------------------------------------------|
A|----------------------------------------------------------------|
E|--5--------5--------3------55-----1-1-1-1-1-1-1---3-3-3-3-3-3-3-|

Pre verse

G|--------------------------------------------------------------------------------------|
D|--------------------------------------------------------------------------------------|
A|--------------------------------------------------------------------------------------|
E|-555555555555555--11111111--3333333---555555555555555--11111111--3333333-534-5-3-1----|

Verse

G|----------------------------------------------------------------------------|
D|----------------------------------------------------------------------------|
A|----------------------------------------------------------------------------|
E|-12\-1-1-1-1-1-1--3-3--5535-55555555-3--1-1-1-1-1-1-1--3-3--5535-55555555-3-|

G|-----------------------------------|
D|-----------------------------------|
A|---------5-5-5-5-------------------|
E|1-1-1-1-----------0-0-0-0-777-8-10-|

Chorus

G|--------------------------------------------------------------|
D|--------------------------------------------------------------|
A|--------------------------------------------------------------|
E|-\5--578--8\10-878-75-111-3-4---\5--578--8\10-878-75-111-3-4--|

Pre verse

G|--------------------------------------------------------------------------------------|
D|--------------------------------------------------------------------------------------|
A|--------------------------------------------------------------------------------------|
E|-555555555555555--11111111--3333333---555555555555555--11111111--3333333-534-5-3-1----|


Verse

G|----------------------------------------------------------------------------|
D|----------------------------------------------------------------------------|
A|----------------------------------------------------------------------------|
E|-12\-1-1-1-1-1-1--3-3--5535-55555555-3--1-1-1-1-1-1-1--3-3--5535-55555555-3-|

G|-----------------------------------|
D|-----------------------------------|
A|---------5-5-5-5-------------------|
E|1-1-1-1-----------0-0-0-0-777-8-10-|

Chorus

G|--------------------------------------------------------------|
D|--------------------------------------------------------------|
A|--------------------------------------------------------------|
E|-\5--578--8\10-878-75-111-3-4---\5--578--8\10-878-75-111-3-4--|

G|---------------------------------------------|
D|--5h7-5h7---8h10-8h10----10h12-10h12---------|
A|---------------------------------------------|
E|5---------8-----------10-------------111-3-4-|
[ Tab from: http://www.guitartabs.cc/tabs/t/trivium/anthem_we_are_the_fire_btab.html ]
G|--8h10-8h10---10h12-10h12------------------------|
D|-----------------------------10h12-10h12---------|
A|-------------------------------------------------|
E|5-----------8-------------10-------------111-3-4-|


Pre verse

G|-------------------------------------------------------------------------|
D|-------------------------------------------------------------------------|
A|-------------------------------------------------------------------------|
E|-555555555555555--11111111--3333333---555555555555555--11111111--3333333-|

G|---------------------------------------------------------------------------------------|
D|---------------------------------------------------------------------------------------|
A|---------------------------------------------------------------------------------------|
E|-555555555555555--11111111--3333333---555555555555555--11111111--3333333-534-5-3-1-0-3-|

guitar solo part

G|------------------------------------------------------|
D|------------------------------------------------------|
A|------------------------------------------532320------|   X3
E|-5-555-555-555-555-555-5-3-1-111-111-111--------------|

G|------------------------------------------------------|
D|------------------------------------------------------|
A|------------------------------------------532327------|   X1
E|-5-555-555-555-555-555-5-3-1-111-111-111--------------|

G|------------------------------------------------------|
D|------------------------------------------------------|
A|------------------------------------------754542------|   X2
E|-7-777-777-777-777-777-7-5-3-333-333-333--------------|


G|------------------------------------------------------|
D|------------------------------------------------------|
A|------------------------------------------532320------|   X2
E|-5-555-555-555-555-555-5-3-1-111-111-111--------------|

G|-------------------------------------------------------------------------------------|
D|-------------------------------------------------------------------------------------|
A|-------------------------------------------------------------------------------------|
E|-1---3---5---5---5---5---5---5---5--5---5--5---5-5-5-5-5-5-5-5-5-5-5-5-5-5-5-5-1---3-|


G|-------------------------------------------------------------------------|
D|-------------------------------------------------------------------------|
A|-------------------------------------------------------------------------|
E|-555555555555555--11111111--3333333---555555555555555--11111111--3333333-|

go on as long as needed with this ^^^ part then on the last time do this

G|------------------------------------------------------|
D|------------------------------------------------------|
A|------------------------------------------------------|
E|-555555555555555--11111111--3333333--534-5-3-1-3-5535-|

the whole song....enjoy!
Comments