Trivium - And Sadness Will Sear Chords & Tabs

 

And Sadness Will Sear Chords & Tabs

Trivium Chords & Tabs

Version: 4 Type: Tab 0 ratings
1 star 2 stars 3 stars 4 stars 5 stars
comments

And Sadness Will Sear Tab

-Trivium: And Sadness Will Sear-
-Tabbed by:Rob-


Intro
(Guitar 1 plays, then Guitar 2 comes in)
E ----------------------------------------------------------------------|
B ----------------------------------------------------------------------|
G -----------------------------------------------------444---4----------|
D -55555-X-4444-XX-222-X-----2222222---55555-X-4444-XX-444-X-4-2222222--|
A -55555-X-4444-XX-222-X-----2222222---55555-X-4444-XX-222-X-2-2222222--|
E -33333-X-2222-XX-222-X-/12-2222222---33333-X-2222-XX-222-X-2-2222222--|
PM                           .......                           .......

Verse
(Guitar 1)
E ----------------------------------|
B ----------------------------------|
G ----------------------------------|
D ----------------------------------|
A -/9--12--16-15---/9--12-16-15-19--|
E ----------------------------------|


Chorus
(Both Guitars)
E ----------------------------------------------------------------------|
B ----------------------------------------------------------------------|
G -----------------------------------------------------444---4----------|
D -55555-X-4444-XX-222-X-----2222222---55555-X-4444-XX-444-X-4-2222222--|
A -55555-X-4444-XX-222-X-----2222222---55555-X-4444-XX-222-X-2-2222222--|
E -33333-X-2222-XX-222-X-/12-2222222---33333-X-2222-XX-222-X-2-2222222--|
PM                           .......                           .......

Verse
(Guitar 1)
E ----------------------------------|
B ----------------------------------|
G ----------------------------------|
D ----------------------------------|
A -/9--12--16-15---/9--12-16-15-19--|
E ----------------------------------|

(Guitar 2)
E ----------------------------------|
B ----------------------------------|
G ----------------------------------| (2nd Guitar strums chords
D -5555555555555555-----------------| after above verse is played)
A -5555555555555555-----------------|
E -3333333333333333-----------------|
PM ................


Chorus
(Both Guitars)
E ----------------------------------------------------------------------|
B ----------------------------------------------------------------------|
G -----------------------------------------------------444---4----------|
D -55555-X-4444-XX-222-X-----2222222---55555-X-4444-XX-444-X-4-2222222--|
A -55555-X-4444-XX-222-X-----2222222---55555-X-4444-XX-222-X-2-2222222--|
E -33333-X-2222-XX-222-X-/12-2222222---33333-X-2222-XX-222-X-2-2222222--|
PM                           .......                           .......


Bridge
(Both Guitars)   Tremelo Picking....
E ---------------------------------------------------|
B ---------------------------------------------------|
G ---------------------------------------------------| x2
D ---------------------------------------------------|
A -222222222222222244444444444444445555555555555555--|
E ---------------------------------------------------|
[ Tab from: http://www.guitartabs.cc/tabs/t/trivium/and_sadness_will_sear_tab_ver_4.html ]
Then Play:
E -------------------------------------------------------------------------|
B -------------------------------------------------------------------------|
G -------------------------------------------------------------------------|
D -------------------------------------------------------------------------|
A -2222222222222222444444444444444455555555555555557777777777777777777777--|
E -------------------------------------------------------------------------|

*Bridge is used as rhythm for Guitar Solo*


Solo

E --------------------------------------------|
B -/15p14-------------------------------------|
G --------14/19--17bp15-----------------------|
D ---------------------20--17/15-17/14-14/12--|
A --------------------------------------------|
E --------------------------------------------|

E -------------------------------------------------------------------|
B -------------------------------------------------------------------|
G -------------------------------------------------------------------|
D -------13p12------17p15p14-15p14p12-13p12p10-----------------------|
A -121415-----121415--------------------------9/12--/19h20-20-20p19--|
E -------------------------------------------------------------------|
PM  . . .      . . .

E -----------------------------------------------------|
B -----------------------------------------------------|
G ---------------------------------151618------151618--|
D -------121415------121415--121415------121415--------|
A -131516------131516----------------------------------|
E -----------------------------------------------------|

E --------------------------------------|
B -------171820------171820---20bp17----|
G -151618------151618---------------19--|
D --------------------------------------|
A --------------------------------------|
E --------------------------------------|

E ---------------------------------------------------------------|
B -----1719201917-15------------------1719201917-17-17171717-15--|
G -1415---------------------------1415---------------------------|
D -------------------17171717-16---------------------------------|
A ---------------------------------------------------------------|
E ---------------------------------------------------------------|


Chorus
(Both Guitars)
E ----------------------------------------------------------------------|
B ----------------------------------------------------------------------|
G -----------------------------------------------------444---4----------|
D -55555-X-4444-XX-222-X-----2222222---55555-X-4444-XX-444-X-4-2222222--|
A -55555-X-4444-XX-222-X-----2222222---55555-X-4444-XX-222-X-2-2222222--|
E -33333-X-2222-XX-222-X-/12-2222222---33333-X-2222-XX-222-X-2-2222222--|
PM                           .......                           .......


Ending Chorus
(Both Guitars)
E ----------------------------|
B ----------------------------|
G -------------4444-----------| x2
D -55555-44444-4444-22222222--|
A -55555-44444-2222-22222222--|
E -33333-22222-2222-22222222--|
Comments