Trivium - And Sadness Will Sear Chords & Tabs

 

And Sadness Will Sear Chords & Tabs

Trivium Chords & Tabs

Version: 2 Type: Tab 0 ratings
1 star 2 stars 3 stars 4 stars 5 stars
comments

And Sadness Will Sear Tab

----------------------------------------------------------------------------
		       AND SADNESS WILL SEAR - Trivium
----------------------------------------------------------------------------
Tabbed by: Stephen H.

Tuning: EADGBe (Standard)

Notes: Many people say this song is played on a 7-string guitar, and I'm not doubting 
but I don't have my own 7-string so I've put together the intro as best as I could for a 
6-string. Please rate, and enjoy.

[ Tab from: http://www.guitartabs.cc/tabs/t/trivium/and_sadness_will_sear_tab_ver_2.html ]
                          PM-|              PM-------------------------------|
e|---------------------------------------------------------------------------|
B|---------------------------------------------------------------------------|
G|----------------3---3-------4---------4------------------------------------|
D|-5-5-5-5-5----X-4---4-------4---X-----4------------------------------------|
A|-5-5-5-5-5----X-4---4---4-4-2---X-----2---2-2-2-2-2-2-2--------------------|
E|-3-3-3-3-3----X-2---2---2-2-2---X-7\0-2---2-2-2-2-2-2-2--------------------|

                          PM-|       PM-|    PM------------------------------|
e|---------------------------------------------------------------------------|
B|---------------------------------------------------------------------------|
G|----------------3---3-------4---------4------------------------------------|
D|-5-5-5-5-5----X-4---4-------4---------4------------------------------------|
A|-5-5-5-5-5----X-4---4---4-4-2-----2-2-2---2-2-2-2-2-2-2--------------------|
E|-3-3-3-3-3----X-2---2---2-2-2-----2-2-2---2-2-2-2-2-2-2--------------------|


Play this through twice and there you go.
Hope this helped.
Comments