Trivium - And Sadness Will Sear Chords & Tabs

 

And Sadness Will Sear Chords & Tabs

Trivium Chords & Tabs

Version: 1 Type: Tab 0 ratings
1 star 2 stars 3 stars 4 stars 5 stars
comments

And Sadness Will Sear Tab

Artist: Trivium
Song:   And Sadness Will Sear
Album:  The Crusade
Tuning: 7 String - B Standard (BEADGBE)

***
Notes:
This is mostly taken from one of the
guitar pro versions on here but I changed
a lot of things with it, especially with
the chorus/intro riff. It's missing the
bridge riff and solos. Update: April 2nd/2008
Thanks to Cthulhu_Calls for correction of the
intro/chorus riff.
***

_____________________________________________
                                             |
m = mute the strings (like stacatto style)   |
* = palm muted                               |
/ = slide up to the headstock                |
_____________________________________________|

Intro (played twice):
|--------------------------------------------------|
|--------------------------------------------------|
|--------------------------------------------------|
|--5-5-5-5-5--------------0------------------------|
|--5-5-5-5-5-----4--4-----5------------------------|
|--3-3-3-3-3--m--6--6-----7----------2-2-2-2-2-2-2-|
|--3-3-3-3-3--m--2--2-0-0-0-0-12s0---0-0-0-0-0-0-0-|
                      * *   *          * * * * * *

|-------------------------------------------------------|
|-------------------------------------------------------|
|-------------------------------------------------------|
|--5-5-5-5-5--------------------------------------------|
|--5-5-5-5-5-----4--4-----5-5-5-5-----5-----------------|
|--3-3-3-3-3--m--6--6-----5-5-5-7-----7--2-2-2-2-2-2-2--|
|--3-3-3-3-3--m--2--2-0-0-0-0-0-0--0--0--0-0-0-0-0-0-0--|
                      * *          *     * * * * * * *


Verse (twice):
|--------------------------------------------------------|
|--------------------------------------------------------|
|---------------------------------------------------9----|
|--------7----11----10-------------7----11----10---------|
|---9-------------------------9--------------------------|
|--------------------------------------------------------|
|--------------------------------------------------------|

Chorus (play twice):
|--------------------------------------------------|
|--------------------------------------------------|
|--------------------------------------------------|
|--5-5-5-5-5--------------0------------------------|
|--5-5-5-5-5-----4--4-----5------------------------|
|--3-3-3-3-3--m--6--6-----7----------2-2-2-2-2-2-2-|
|--3-3-3-3-3--m--2--2-0-0-0-0-12s0---0-0-0-0-0-0-0-|
                      * *   *          * * * * * *

|-------------------------------------------------------|
|-------------------------------------------------------|
|-------------------------------------------------------|
|--5-5-5-5-5--------------------------------------------|
|--5-5-5-5-5-----4--4-----5-5-5-5-----5-----------------|
|--3-3-3-3-3--m--6--6-----5-5-5-7-----7--2-2-2-2-2-2-2--|
|--3-3-3-3-3--m--2--2-0-0-0-0-0-0--0--0--0-0-0-0-0-0-0--|


Verse (twice):
|--------------------------------------------------------|
|--------------------------------------------------------|
|---------------------------------------------------9----|
|--------7----11----10-------------7----11----10---------|
|---9-------------------------9--------------------------|
|--------------------------------------------------------|
|--------------------------------------------------------|

(under verse riff second time)
|-----------------------------------------------------|
|-----------------------------------------------------|
|-----------------------------------------------------|
|-----------------------------------------------------|
|-----------------------------------------------------|
|---2--2--2--2--2--2--2--2--2--2--2--2--2--2--2--2----|
|-----------------------------------------------------|

|-----------------------------------------------------|
|-----------------------------------------------------|
|-----------------------------------------------------|
|-----------------------------------------------------|
|-----------------------------------------------------|
|-----------------------------------------------------|
|---3--3--3--3--3--3--3--3--0--0--0--0--0--0--0--0----|
[ Tab from: http://www.guitartabs.cc/tabs/t/trivium/and_sadness_will_sear_tab.html ]
Chorus (play whole thing twice):
|--------------------------------------------------|
|--------------------------------------------------|
|--------------------------------------------------|
|--5-5-5-5-5--------------0------------------------|
|--5-5-5-5-5-----4--4-----5------------------------|
|--3-3-3-3-3--m--6--6-----7----------2-2-2-2-2-2-2-|
|--3-3-3-3-3--m--2--2-0-0-0-0-12s0---0-0-0-0-0-0-0-|
                      * *   *          * * * * * *

|-------------------------------------------------------|
|-------------------------------------------------------|
|-------------------------------------------------------|
|--5-5-5-5-5--------------------------------------------|
|--5-5-5-5-5-----4--4-----5-5-5-5-----5-----------------|
|--3-3-3-3-3--m--6--6-----5-5-5-7-----7--2-2-2-2-2-2-2--|
|--3-3-3-3-3--m--2--2-0-0-0-0-0-0--0--0--0-0-0-0-0-0-0--|

Bridge:
(missing)

Solos: 
(missing)

Chorus (play whole thing twice):
|--------------------------------------------------|
|--------------------------------------------------|
|--------------------------------------------------|
|--5-5-5-5-5--------------0------------------------|
|--5-5-5-5-5-----4--4-----5------------------------|
|--3-3-3-3-3--m--6--6-----7----------2-2-2-2-2-2-2-|
|--3-3-3-3-3--m--2--2-0-0-0-0-12s0---0-0-0-0-0-0-0-|
                      * *   *          * * * * * *

|-------------------------------------------------------|
|-------------------------------------------------------|
|-------------------------------------------------------|
|--5-5-5-5-5--------------------------------------------|
|--5-5-5-5-5-----4--4-----5-5-5-5-----5-----------------|
|--3-3-3-3-3--m--6--6-----5-5-5-7-----7--2-2-2-2-2-2-2--|
|--3-3-3-3-3--m--2--2-0-0-0-0-0-0--0--0--0-0-0-0-0-0-0--|

Outro lick:
|------------------------------------------------|
|------------------------------------------------|
|---11---------11----12----11---------9----11----|
|---------9----------------------9---------------|
|------------------------------------------------|
|------------------------------------------------|
|------------------------------------------------|

|--------------------------------------------------|
|--------------------------------------------------|
|---11---------11----12----14----12----11----12----|
|---------9----------------------------------------|
|--------------------------------------------------|
|--------------------------------------------------|
|--------------------------------------------------|

|------------------------------------------------|
|------------------------------------------------|
|---11---------11----12----11---------------9----|
|---------9----------------------9----12---------|
|------------------------------------------------|
|------------------------------------------------|
|------------------------------------------------|

|-----------------------------------------------|
|-----------------------------------------------|
|---11---------11----12----11----9----7----9----|
|---------9-------------------------------------|
|-----------------------------------------------|
|-----------------------------------------------|
|-----------------------------------------------|

Outro lick 2: (octaved and slower)
|---14----------14----15----14----------12----14----|
|---------12----------------------15----------------|
|---11----------11----12----11-----------9----11----|
|----------9----------------------12----------------|
|---------------------------------------------------|
|---------------------------------------------------|
|---------------------------------------------------|

|---14----------14----15----17----15----14----15----|
|---------12----------------------------------------|
|---11----------11----12----14----12----11----12----|
|----------9----------------------------------------|
|---------------------------------------------------|
|---------------------------------------------------|
|---------------------------------------------------|


|---14----------14----15----14----------12----14----|
|---------12----------------------15----------------|
|---11----------11----12----11-----------9----11----|
|----------9----------------------12----------------|
|---------------------------------------------------|
|---------------------------------------------------|
|---------------------------------------------------|

|---14----------14----15----14----12----10-----9----|
|---------12----------------------------------------|
|---11----------11----12----11-----9-----7-----6----|
|----------9----------------------------------------|
|---------------------------------------------------|
|---------------------------------------------------|
|---------------------------------------------------|

End on:
|--------|
|--12----|
|--------|
|---9----|
|--------|
|--------|
|--------|
Comments