Trivium - A View Of Burning Empires Chords & Tabs

 

A View Of Burning Empires Chords & Tabs

Trivium Chords & Tabs

Version: 2 Type: Tab 0 ratings
1 star 2 stars 3 stars 4 stars 5 stars
comments

A View Of Burning Empires Tab

This is a version of the song where you can play both rhytm and melody line.
Im not a good a good tabber, so ive only shown what to play, how to play it is up to you.   




|-------------------------|-------------------------|-----------------------
|-------------------------|-------------------------|-----------------------
|-------------------------|-------------------------|-----------------------
|-0--0--0--0--0--0--0--0--|-2--2--2--2--4--4--4--4--|-8--8--8--8--8--8--8--8
|-0--0--0--0--0--0--0--0--|-0--0--0--0--0--0--0--0--|-5--5--5--5--5--5--5--5
|-0--0--0--0--0--0--0--0--|-0--0--0--0--0--0--0--0--|-5--5--5--5--5--5--5--5


[ Tab from: http://www.guitartabs.cc/tabs/t/trivium/a_view_of_burning_empires_tab_ver_2.html ]
|-------------------------|-------------------------|-----------------------
|-------------------------|-------------------------|-----------------------
|-------------------------|-------------------------|-----------------------
|-7--7--7--7--5--5--5--5--|-10-10-10-10-10-10-10-10-|-8--8--8--8--7--7--7--7
|-5--5--5--5--5--5--5--5--|-8--8--8--8--8--8--8--8--|-8--8--8--8--8--8--8--8
|-5--5--5--5--5--5--5--5--|-8--8--8--8--8--8--8--8--|-8--8--8--8--8--8--8--8



|-------------------------|-------------------------|
|-------------------------|-------------------------|
|-------------------------|-------------------------|
|-7--7--7--7--8--8--8--8--|-7--7--7--7--5--5--5--5--|
|-3--3--3--3--3--3--3--3--|-7--7--7--7--7--7--7--7--|
|-3--3--3--3--3--3--3--3--|-7--7--7--7--7--7--7--7--|

Just repeat till your bored of it;)
Comments