Trivium - A Gunshot To The Head Of Trepidation Chords & Tabs

 

A Gunshot To The Head Of Trepidation Chords & Tabs

Trivium Chords & Tabs

Version: 2 Type: Tab 0 ratings
1 star 2 stars 3 stars 4 stars 5 stars
comments

A Gunshot To The Head Of Trepidation Tab

-------------------------------------------------------------------------------
			     A Gunshot to the head of trepidation - Trivium
-------------------------------------------------------------------------------
Tabbed by:Dotmw!
Email:
HEre it is! This Song Kicks A$$!
Tuning:Drop D (ebgdbD)
Hold Each Chord For the Appropriate Time (Listen to the Track)
e|---------------------------------------------------------------------------|
B|---------------------------------------------------------------------------|
G|-7----6--9--10-------------------------------------------------------------|
D|---------------------------------------------------------------------------|
A|-5----4--7--8--------------------------------------------------------------|
E|---------------------------------------------------------------------------|
[ Tab from: http://www.guitartabs.cc/tabs/t/trivium/a_gunshot_to_the_head_of_trepidation_tab_ver_2.html ]
VErse (You starve your Children...) PM the zeros
e|---------------------------------------------------------------------------|
B|---------------------------------------------------------------------------|
G|--7--------7--6---------6---9-------9--10----------------------------------|
D|---------------------------------------------------------------------------|
A|--5--------5--4---------4---7-------7--8-----------------------------------|
E|-----0000--------0000---------0000-----------000000000---------------------|
Chorus 1 (Your Abuse...)
e|---------------------------------------------------------------------------|
B|---------------------------------------------------------------------------|
G|---------------------------------------------------------------------------|
D|-----775577-------775577---------77557777----------55-----------x2---------|
A|-------------33------------55----------------88----------------------------|
E|00-------------------------------------------------------------------------|
CHRS2 (A Gunshot to the head...)
e|----------------------------------------------------------------------------|
B|----------------------------------------------------------------------------|
G|----------------------------------------------------------------------------|
D|---7-5-7-------7-5-7-------7-5-7-7-----5------------x2----------------------|
A|---------3-------------5-------------8----7---------------------------------|
E|-0--------------------------------------------------------------------------|
INterlude (Use legato as you please, but i alternate pick)
e|----------------------------------------------------------------------------|
B-----------------------------------------------------------------------------|
G|----9-10-9109----------------------9--10--9109------------12/14-------------|
D|-----------------12------------------------------12--10---------------------|
A|---------------------12----13-----------------------------------------------|
E|----------------------------------------------------------------------------|

e|---------------------------------------------------------------------------|
B|---------------------------------------------------------------------------|
G|-9-10-9109---------------10-9-7-7-9-10-9-7-9-12-10-9-10-12--14-12-10-------|
D|-------------12--13--------------------------------------------------------|
A|---------------------------------------------------------------------------|
E|---------------------------------------------------------------------------|
Bridge (Open Fire!)
e|----------------------------------------------------------------------------|
B|----------------------------------------------------------------------------|
G|-3---5-7--------------------3--5-7------------------------------------------|
D|-3---5-7--------------------3--5-7----5--5/7--33333-------------------------|
A|-1---3-5-----0-0-0-0-0-0-0--1--3-5----5--5/7--33333-------------------------|
E|-------------0-0-0-0-0-0-0------------5--5/7--33333-------------------------|
Solo (Working on it :(
Epic Riff (Hey Hey Hey!)
e|--------------------------------------------------------------------|
B|--------------------------------------------------------------------|
G|-3---5--7-----------------------------------------------------------|
D|-3---5--7--------------------Rep eat then---------------------------|
A|-1---3--5-----------------------------------------------------------|
E|-----------------------------------------------3-3-3-3-3-3-3-3-3-3--|Back to Bridge
I'll have the solo as soon as i can, but my Lick learner is on the Fritz!
LAter!
Comments