Trivium - A Gunshot To The Head Of Trepidation Chords & Tabs

 

A Gunshot To The Head Of Trepidation Chords & Tabs

Trivium Chords & Tabs

Version: 5 Type: Bass Tab 0 ratings
1 star 2 stars 3 stars 4 stars 5 stars
comments

A Gunshot To The Head Of Trepidation Bass Tab

   
Tab by: Kaseke

************************
p = Pull-off
\ = Slide down
************************

You don't necessarily need  the 5 string bass. It's only used in some parts, and 
you can just as well play those notes on the higher A string.

(0:00):
G|--------------------------------|
D|--------------------------------|
A|--------------------------------|
D|-0--------------2-------3-------|
A|--------4-----------------------|

G|---------------------------------|
D|---------------------------------|
A|---------------------------------|
D|-0--------------5----5--3--------|
A|--------4----4-------------5r5\--|

(0:15)
G|--------------------------------------------|         \
D|--------------------------------------------|         |
A|-5------5--4------4--7------7--8------------|         |
D|----0000------0000------0000------000000000-|         |
A|--------------------------------------------|          \
                                                          }(x2)
G|---------------------------------------------------|   /
D|---------------------------------------------------|  |
A|-5------5--4------4--7------7--10-10-10-10-8-8-8-8-|  |
D|----0000------0000------0000-----------------------|  |
A|---------------------------------------------------|  /

(0:32)
G|-----------------------------------------------------------------|
D|-----------------------------------------------------------------|
A|-----------------------------------------------------------------|
D|-0-0-0-0-0-0-0-0-7-7-7-7-7-7-7-7-8-8-8-8-8-8-8-8-8-8-5-5-7-7-3-3-|
A|-----------------------------------------------------------------|(x2)

G|------------------------|
D|------------------------|
A|----------------8-5-7-4-|
D|-0----2----3------------|
A|------------------------|(x2)

(0:49)
G|--------------------------------------------|         \
D|--------------------------------------------|         |
A|-5------5--4------4--7------7--8------------|         |
D|----0000------0000------0000------000000000-|         |
A|--------------------------------------------|          \
                                                          }(x2)
G|---------------------------------------------------|   /
D|---------------------------------------------------|  |
A|-5------5--4------4--7------7--10-10-10-10-8-8-8-8-|  |
D|----0000------0000------0000-----------------------|  |
A|---------------------------------------------------|  /

(1:05)
G|-----------------------------------------------------------------|
D|-----------------------------------------------------------------|
A|-----------------------------------------------------------------|
D|-0-0-0-0-0-0-0-0-7-7-7-7-7-7-7-7-8-8-8-8-8-8-8-8-8-8-5-5-7-7-3-3-|
A|-----------------------------------------------------------------|(x2)

G|------------------------|
D|------------------------|
A|----------------8-5-7-4-|
D|-0----2----3------------|
A|------------------------|(x2)

(1:22)
G|-----------------------------------|
D|-----------------------------------|
A|-----------------------------8-7---|
D|-0----0--5----5--7-------8---------|
A|-----------------------------------|

G|-----------------------------------|
D|-----------------------------------|
A|-----------------------------8-7---|
D|-0----0--5----5--7-------8---------|
A|-----------------------------------|

(1:38)
G|--------------------------------------------|         \
D|--------------------------------------------|         |
A|-5------5--4------4--7------7--8------------|         |
D|----0000------0000------0000------000000000-|         |
A|--------------------------------------------|          \
                                                          }(x2)
G|---------------------------------------------------|   /
D|---------------------------------------------------|  |
A|-5------5--4------4--7------7--10-10-10-10-8-8-8-8-|  |
D|----0000------0000------0000-----------------------|  |
A|---------------------------------------------------|  /

(1:55)
G|-----------------------------------------------------------------|
D|-----------------------------------------------------------------|
A|-----------------------------------------------------------------|
D|-0-0-0-0-0-0-0-0-7-7-7-7-7-7-7-7-8-8-8-8-8-8-8-8-8-8-5-5-7-7-3-3-|
A|-----------------------------------------------------------------|(x2)
[ Tab from: http://www.guitartabs.cc/tabs/t/trivium/a_gunshot_to_the_head_of_trepidation_btab_ver_5.html ]
G|------------------------|
D|------------------------|
A|----------------8-5-7-4-|
D|-0----2----3------------|
A|------------------------|(x2)
:11)
G|-----------------------------------|  \
D|-----------------------------------|  |
A|-----------------------------------|  |
D|-0----0--5----5--7-------8---3--2--|  |
A|-----------------------------------|   \
                                          }(x2)
G|-----------------------------------|   /
D|-----------------------------------|  |
A|-----------------------------------|  |
D|-0----0--5----5--------------3--2--|  |
A|-----------------0-------2---------|  /


(2:44)
G|------------------------|     \
D|------------------------|     |
A|-1---3---5--------------|     |
D|----0---0---0-0-0-0-0-0-|     |
A|------------------------|      \
                                  }(x4)
G|------------------------|      /
D|------------------------|     |
A|-1---3------------------|     |
D|----0---05--73--3-3-3-3-|     |
A|------------------------|     /

(3:10)
G|---------------|
D|---------------|
A|---------------|
D|-0-------3-4-5-|
A|---------------|(x3)

G|------------------------|
D|------------------------|
A|-5--5-3--3-2--2---------|
D|----------------0-3-4-5-|
A|------------------------|

(3:24)
G|-------------------------------|
D|-------------------------------|
A|------5---3---6-5----5---------|
D|-0--0---0---0------0---0-3-4-5-|
A|-------------------------------|(x3)

G|------------------------|
D|------------------------|
A|-5--5-3--3-2--2---------|
D|----------------0-3-4-5-|
A|------------------------|

(3:37)
G|----------------------------------------------------------|   \
D|----------------------------------------------------------|   |
A|---------------4--4-4--4-4-4-3--3-3-0-3-5-0-2--2-2--2-2-2-|   |
D|-0--0-0--0-0-0--------------------------------------------|   |
A|----------------------------------------------------------|    \
                                                                  }(2x)
G|------------------------------------------------------------|  /
D|------------------------------------------------------------| |
A|-1--1-1--1-1-1-0--0-0---------------------------------------| |
D|----------------------3--2--0--0-0--0-0-0-0-0-0-0-0-0-0-0-0-| |
A|------------------------------------------------------------| /

(rest)

(4:05)
G|---------------------------------------------------|
D|------------------------------10--------7-5--------|
A|---------------------------10---------5-----8-7----|
D|0--0-0-0-0-0-0-0-8-8-8-10--------0--0-----------10-|
A|---------------------------------------------------|

G|----------------------------------|
D|--------------10------------------|
A|-----------10---------------------|
D|-8-8-8-10--------0--0-0-0-0-0-0-0-|
A|----------------------------------|

G|----------------------------------|
D|--------------10------------------|
A|-----------10---------5h0-3h0-1h0-|
D|-8-8-8-10--------0--0-------------|
A|----------------------------------|

G|----------------------------------|   \
D|--------------10------------------|   |
A|-----------10---------------------|   |
D|-8-8-8-10--------0--0-0-0-0-0-0-0-|   |
A|----------------------------------|    \
                                          }(x2)
G|----------------------------------|    /
D|--------------10--------7-7-5-----|   |
A|-----------10---------5-------8-7-|   |
D|-8-8-8-10--------0--0-------------|   |
A|----------------------------------|   /

(4:30)
G|------------------------------------------------|                     \
D|------------------------------------------------|                     |
A|------------------------------------------------|                     |
D|-8-8-8-8-8-8-8-8-10p8-10p8-8-10p8-10p8-8-10p8-8-|                     |
A|------------------------------------------------|                      \
                                                                          }(x2)
G|----------------------------------------------------------------|      /
D|----------------------------------------------------------------|     |
A|----------------------------------------------------------------|     |
D|-10-10-10-10-10-10-10-10-12p10-12p10-10-12p10-12p10-10-12p10-10-|     |
A|----------------------------------------------------------------|     /

G|10-7----7--------------------------------------------|
D|-----10---10-7-10-7----7--------------------10\7-0---|
A|--------------------10---10-8-10-8----10b-8----------|
D|-----------------------------------10----------------|
A|-----------------------------------------------------|

(4:47)
G|-------|
D|-------|
A|-------|
D|-0r-0r-|
A|-------|(x15)

G|-----------------------------|
D|-----------------------------|
A|-----------------------------|
D|-0-0-0-0-0-0-0-0-0-0-0-0-0-0-|
A|-----------------------------|

(5:14)
G|------------------------|     \
D|------------------------|     |
A|-1---3---5--------------|     |
D|----0---0---0-0-0-0-0-0-|     |
A|------------------------|      \
                                  }(x5)
G|------------------------|      /
D|------------------------|     |
A|-1---3------------------|     |
D|----0---05--73--3-3-3-3-|     |
A|------------------------|     /

G|------------------------|
D|------------------------|
A|-1---3---5--------------|
D|----0---0---0-0-0-0-0-0-|
A|------------------------|

G|----------------|
D|----------------|
A|-1---3----------|
D|----0---05--73\-|
A|----------------|
Comments