Trivium - A Gunshot To The Head Of Trepidation Chords & Tabs

 

A Gunshot To The Head Of Trepidation Chords & Tabs

Trivium Chords & Tabs

Version: 4 Type: Bass Tab 0 ratings
1 star 2 stars 3 stars 4 stars 5 stars
comments

A Gunshot To The Head Of Trepidation Bass Tab

   
                     A Gunshot To The Head Of Trepidation  -  Trivium                     


                                                                         
Paolo Gregoletto

Dropped D tuning


     W                   W                   W                 
G||-------------------|-------------------|-------------------|
D||-------------------|-------------------|-------------------|
A||--5----------------|--L----------------|--4----------------|
D||-------------------|-------------------|-------------------|


  W                   W                   W                   W                 
-------------------|-------------------|-------------------|-------------------|
-------------------|-------------------|-------------------|-------------------|
--L----------------|--7----------------|--L----------------|--8----------------|
-------------------|-------------------|-------------------|-------------------|


  W                   W                   W                   W                 
-------------------|-------------------|-------------------|-------------------|
-------------------|-------------------|-------------------|-------------------|
--L----------------|--5----------------|--L----------------|--4----------------|
-------------------|-------------------|-------------------|-------------------|


  W                   W                   W                   W                 
-------------------|-------------------|-------------------|-------------------|
-------------------|-------------------|-------------------|-------------------|
--L----------------|-------------------|-------------------|-------------------|
-------------------|--5----------------|--L----------------|--3----------------|


                              |--3--|                    |--3--|             
  H         H            Q    E  E  E  Q    Q       Q    E  E  E  Q    Q     
----------------------|--------------------------|--------------------------|
----------------------|--------------------------|--------------------------|
----------------------|--5------------------5----|--4------------------4----|
--L--------12\--------|-------0--0--0--0---------|-------0--0--0--0---------|


       |--3--|                    |--3--|  |--3--|  |--3--|   
  Q    E  E  E  Q    Q       Q    E  E  E  E  E  E  E  E  E   
--------------------------|----------------------------------|
--------------------------|----------------------------------|
--7------------------7----|--8-------------------------------|
-------0--0--0--0---------|-------0--0--0--0--0--0--0--0--0--|


       |--3--|                    |--3--|             
  Q    E  E  E  Q    Q       Q    E  E  E  Q    Q     
--------------------------|--------------------------|
--------------------------|--------------------------|
--5------------------5----|--4------------------4----|
-------0--0--0--0---------|-------0--0--0--0---------|


       |--3--|                                            
  Q    E  E  E  Q    Q        E   E   E   E  E  E  E  E   
--------------------------|------------------------------|
--------------------------|------------------------------|
--7------------------7----|--10--10--10--10--8--8--8--8--|
-------0--0--0--0---------|------------------------------|


       |--3--|                    |--3--|             
  Q    E  E  E  Q    Q       Q    E  E  E  Q    Q     
--------------------------|--------------------------|
--------------------------|--------------------------|
--5------------------5----|--4------------------4----|
-------0--0--0--0---------|-------0--0--0--0---------|


       |--3--|                    |--3--|  |--3--|  |--3--|   
  Q    E  E  E  Q    Q       Q    E  E  E  E  E  E  E  E  E   
--------------------------|----------------------------------|
--------------------------|----------------------------------|
--7------------------7----|--8-------------------------------|
-------0--0--0--0---------|-------0--0--0--0--0--0--0--0--0--|


       |--3--|                    |--3--|             
  Q    E  E  E  Q    Q       Q    E  E  E  Q    Q     
--------------------------|--------------------------|
--------------------------|--------------------------|
--5------------------5----|--4------------------4----|
-------0--0--0--0---------|-------0--0--0--0---------|


       |--3--|                                            
  Q    E  E  E  Q    Q        E   E   E   E  E  E  E  E   
--------------------------|------------------------------|
--------------------------|------------------------------|
--7------------------7----|--10--10--10--10--8--8--8--8--|
-------0--0--0--0---------|------------------------------|


  E  E  E  E  E  E  E  E     E  E  E  E  E  E  E  E   
--------------------------|--------------------------|
--------------------------|--------------------------|
--5--5--5--5--5--5--5--5--|--------------------------|
--------------------------|--7--7--7--7--7--7--7--7--|


  E  E  E  E  E  E  E  E     E  E  E  E  E  E  E  E   
--------------------------|--------------------------|
--------------------------|--------------------------|
--------------------------|--------------------------|
--8--8--8--8--8--8--8--8--|--8--8--8--8--8--8--8--8--|


  E  E  E  E  E  E  E  E     E  E  E  E  E  E  E  E   
--------------------------|--------------------------|
--------------------------|--------------------------|
--5--5--5--5--5--5--5--5--|--------------------------|
--------------------------|--7--7--7--7--7--7--7--7--|


  E  E  E  E  E  E  E  E     E  E  E  E  E  E  E  E     W                 
--------------------------|--------------------------|-------------------|
--------------------------|--------------------------|-------------------|
--------------------------|--------------------------|--5----------------|
--8--8--8--8--8--8--8--8--|--8--8--8--8--8--8--8--8--|-------------------|


  W                   W                   Q    Q    Q    Q     
-------------------|-------------------|----------------------|
-------------------|-------------------|----------------------|
--7----------------|-------------------|--8----5----7----3----|
-------------------|--3----------------|----------------------|


  W                   W                   W                 
-------------------|-------------------|-------------------|
-------------------|-------------------|-------------------|
--5----------------|--7----------------|-------------------|
-------------------|-------------------|--3----------------|


                              |--3--|                    |--3--|             
  Q    Q    Q    Q       Q    E  E  E  Q    Q       Q    E  E  E  Q    Q     
----------------------|--------------------------|--------------------------|
----------------------|--------------------------|--------------------------|
--8----5----7----3----|--5------------------5----|--4------------------4----|
----------------------|-------0--0--0--0---------|-------0--0--0--0---------|


       |--3--|                    |--3--|  |--3--|  |--3--|   
  Q    E  E  E  Q    Q       Q    E  E  E  E  E  E  E  E  E   
--------------------------|----------------------------------|
--------------------------|----------------------------------|
--7------------------7----|--8-------------------------------|
-------0--0--0--0---------|-------0--0--0--0--0--0--0--0--0--|


       |--3--|                    |--3--|             
  Q    E  E  E  Q    Q       Q    E  E  E  Q    Q     
--------------------------|--------------------------|
--------------------------|--------------------------|
--5------------------5----|--4------------------4----|
-------0--0--0--0---------|-------0--0--0--0---------|


       |--3--|                                            
  Q    E  E  E  Q    Q        E   E   E   E  E  E  E  E   
--------------------------|------------------------------|
--------------------------|------------------------------|
--7------------------7----|--10--10--10--10--8--8--8--8--|
-------0--0--0--0---------|------------------------------|


       |--3--|                    |--3--|             
  Q    E  E  E  Q    Q       Q    E  E  E  Q    Q     
--------------------------|--------------------------|
--------------------------|--------------------------|
--5------------------5----|--4------------------4----|
-------0--0--0--0---------|-------0--0--0--0---------|


       |--3--|                    |--3--|  |--3--|  |--3--|   
  Q    E  E  E  Q    Q       Q    E  E  E  E  E  E  E  E  E   
--------------------------|----------------------------------|
--------------------------|----------------------------------|
--7------------------7----|--8-------------------------------|
-------0--0--0--0---------|-------0--0--0--0--0--0--0--0--0--|


       |--3--|                    |--3--|             
  Q    E  E  E  Q    Q       Q    E  E  E  Q    Q     
--------------------------|--------------------------|
--------------------------|--------------------------|
--5------------------5----|--4------------------4----|
-------0--0--0--0---------|-------0--0--0--0---------|


       |--3--|                                            
  Q    E  E  E  Q    Q        E   E   E   E  E  E  E  E   
--------------------------|------------------------------|
--------------------------|------------------------------|
--7------------------7----|--10--10--10--10--8--8--8--8--|
-------0--0--0--0---------|------------------------------|


  E  E  E  E  E  E  E  E     E  E  E  E  E  E  E  E   
--------------------------|--------------------------|
--------------------------|--------------------------|
--5--5--5--5--5--5--5--5--|--------------------------|
--------------------------|--7--7--7--7--7--7--7--7--|


  E  E  E  E  E  E  E  E     E  E  E  E  E  E  E  E   
--------------------------|--------------------------|
--------------------------|--------------------------|
--------------------------|--------------------------|
--8--8--8--8--8--8--8--8--|--8--8--8--8--8--8--8--8--|


  E  E  E  E  E  E  E  E     E  E  E  E  E  E  E  E   
--------------------------|--------------------------|
--------------------------|--------------------------|
--5--5--5--5--5--5--5--5--|--------------------------|
--------------------------|--7--7--7--7--7--7--7--7--|


  E  E  E  E  E  E  E  E     E  E  E  E  E  E  E  E     W                 
--------------------------|--------------------------|-------------------|
--------------------------|--------------------------|-------------------|
--------------------------|--------------------------|--5----------------|
--8--8--8--8--8--8--8--8--|--8--8--8--8--8--8--8--8--|-------------------|


  W                   W                   Q    Q    Q    Q     
-------------------|-------------------|----------------------|
-------------------|-------------------|----------------------|
--7----------------|-------------------|--8----5----7----3----|
-------------------|--3----------------|----------------------|


  W                   W                   W                 
-------------------|-------------------|-------------------|
-------------------|-------------------|-------------------|
--5----------------|--7----------------|-------------------|
-------------------|-------------------|--3----------------|


  Q    Q    Q    Q       W                   W                 
----------------------|-------------------|-------------------|
----------------------|-------------------|-------------------|
--8----5----7----3----|-------------------|-------------------|
----------------------|--0----------------|--L----------------|


  W                   W                   W                   W                 
-------------------|-------------------|-------------------|-------------------|
-------------------|-------------------|-------------------|-------------------|
-------------------|-------------------|-------------------|-------------------|
--5----------------|--L----------------|--7----------------|--L----------------|


  W                   H        H           W                 
-------------------|--------------------|-------------------|
-------------------|--------------------|-------------------|
-------------------|--8--------7--------|-------------------|
--8----------------|--------------------|--0----------------|


  W                   W                   W                   W                 
-------------------|-------------------|-------------------|-------------------|
-------------------|-------------------|-------------------|-------------------|
-------------------|-------------------|-------------------|-------------------|
--L----------------|--5----------------|--L----------------|--7----------------|


  W                   W                   H        H         
-------------------|-------------------|--------------------|
-------------------|-------------------|--------------------|
-------------------|-------------------|--8--------7--------|
--L----------------|--8----------------|--------------------|


       |--3--|                    |--3--|             
  Q    E  E  E  Q    Q       Q    E  E  E  Q    Q     
--------------------------|--------------------------|
--------------------------|--------------------------|
--5------------------5----|--4------------------4----|
-------0--0--0--0---------|-------0--0--0--0---------|


       |--3--|                    |--3--|  |--3--|  |--3--|   
  Q    E  E  E  Q    Q       Q    E  E  E  E  E  E  E  E  E   
--------------------------|----------------------------------|
--------------------------|----------------------------------|
--7------------------7----|--8-------------------------------|
-------0--0--0--0---------|-------0--0--0--0--0--0--0--0--0--|


       |--3--|                    |--3--|             
  Q    E  E  E  Q    Q       Q    E  E  E  Q    Q     
--------------------------|--------------------------|
--------------------------|--------------------------|
--5------------------5----|--4------------------4----|
-------0--0--0--0---------|-------0--0--0--0---------|


       |--3--|                                            
  Q    E  E  E  Q    Q        E   E   E   E  E  E  E  E   
--------------------------|------------------------------|
--------------------------|------------------------------|
--7------------------7----|--10--10--10--10--8--8--8--8--|
-------0--0--0--0---------|------------------------------|


       |--3--|                    |--3--|             
  Q    E  E  E  Q    Q       Q    E  E  E  Q    Q     
--------------------------|--------------------------|
--------------------------|--------------------------|
--5------------------5----|--4------------------4----|
-------0--0--0--0---------|-------0--0--0--0---------|


       |--3--|                    |--3--|  |--3--|  |--3--|   
  Q    E  E  E  Q    Q       Q    E  E  E  E  E  E  E  E  E   
--------------------------|----------------------------------|
--------------------------|----------------------------------|
--7------------------7----|--8-------------------------------|
-------0--0--0--0---------|-------0--0--0--0--0--0--0--0--0--|


       |--3--|                    |--3--|             
  Q    E  E  E  Q    Q       Q    E  E  E  Q    Q     
--------------------------|--------------------------|
--------------------------|--------------------------|
--5------------------5----|--4------------------4----|
-------0--0--0--0---------|-------0--0--0--0---------|


       |--3--|                                            
  Q    E  E  E  Q    Q        E   E   E   E  E  E  E  E   
--------------------------|------------------------------|
--------------------------|------------------------------|
--7------------------7----|--10--10--10--10--8--8--8--8--|
-------0--0--0--0---------|------------------------------|


  E  E  E  E  E  E  E  E     E  E  E  E  E  E  E  E   
--------------------------|--------------------------|
--------------------------|--------------------------|
--5--5--5--5--5--5--5--5--|--------------------------|
--------------------------|--7--7--7--7--7--7--7--7--|


  E  E  E  E  E  E  E  E     E  E  E  E  E  E  E  E   
--------------------------|--------------------------|
--------------------------|--------------------------|
--------------------------|--------------------------|
--8--8--8--8--8--8--8--8--|--8--8--8--8--8--8--8--8--|


  E  E  E  E  E  E  E  E     E  E  E  E  E  E  E  E   
--------------------------|--------------------------|
--------------------------|--------------------------|
--5--5--5--5--5--5--5--5--|--------------------------|
--------------------------|--7--7--7--7--7--7--7--7--|


  E  E  E  E  E  E  E  E     E  E  E  E  E  E  E  E     W                 
--------------------------|--------------------------|-------------------|
--------------------------|--------------------------|-------------------|
--------------------------|--------------------------|--5----------------|
--8--8--8--8--8--8--8--8--|--8--8--8--8--8--8--8--8--|-------------------|


  W                   W                   Q    Q    Q    Q     
-------------------|-------------------|----------------------|
-------------------|-------------------|----------------------|
--7----------------|-------------------|--8----5----7----3----|
-------------------|--3----------------|----------------------|


  W                   W                   W                 
-------------------|-------------------|-------------------|
-------------------|-------------------|-------------------|
--5----------------|--7----------------|-------------------|
-------------------|-------------------|--3----------------|


  Q    Q    Q    Q       W                   W                 
----------------------|-------------------|-------------------|
----------------------|-------------------|-------------------|
--8----5----7----3----|-------------------|-------------------|
----------------------|--0----------------|--L----------------|


  W                   W                   W                   W                 
-------------------|-------------------|-------------------|-------------------|
-------------------|-------------------|-------------------|-------------------|
-------------------|-------------------|-------------------|-------------------|
--5----------------|--L----------------|--7----------------|--L----------------|


  W                   H        H           W                 
-------------------|--------------------|-------------------|
-------------------|--------------------|-------------------|
-------------------|--8--------7--------|-------------------|
--8----------------|--------------------|--0----------------|

[ Tab from: http://www.guitartabs.cc/tabs/t/trivium/a_gunshot_to_the_head_of_trepidation_btab_ver_4.html ]
  W                   W                   W                   W                 
-------------------|-------------------|-------------------|-------------------|
-------------------|-------------------|-------------------|-------------------|
-------------------|-------------------|-------------------|-------------------|
--L----------------|--5----------------|--L----------------|--7----------------|


  W                   W                   H        H         
-------------------|-------------------|--------------------|
-------------------|-------------------|--------------------|
-------------------|-------------------|--8--------7--------|
--L----------------|--8----------------|--------------------|


  W                   W                   W                   W                 
-------------------|-------------------|-------------------|-------------------|
-------------------|-------------------|-------------------|-------------------|
-------------------|-------------------|-------------------|-------------------|
--0----------------|--L----------------|--5----------------|--L----------------|


  W                   W                   W                 
-------------------|-------------------|-------------------|
-------------------|-------------------|-------------------|
-------------------|-------------------|-------------------|
--7----------------|--L----------------|--8----------------|


  H        H           W                   W                 
--------------------|-------------------|-------------------|
--------------------|-------------------|-------------------|
--8--------7--------|-------------------|-------------------|
--------------------|--0----------------|--L----------------|


  W                   W                   W                   W                 
-------------------|-------------------|-------------------|-------------------|
-------------------|-------------------|-------------------|-------------------|
-------------------|-------------------|-------------------|-------------------|
--5----------------|--L----------------|--7----------------|--L----------------|


  W                   H        H           Q    E   Q.     E   E   
-------------------|--------------------|-------------------------|
-------------------|--------------------|-------------------------|
-------------------|--8--------7--------|-------------------------|
--8----------------|--------------------|--8----0--10------0--12--|


  E  E  E  E  E  E  E  E     Q    E   Q.     E  E     E  E  Q    E  E  E  E   
--------------------------|------------------------|-------------------------|
--------------------------|------------------------|-------------------------|
--------------------------|------------------------|-------------------------|
--L--0--0--0--0--0--0--0--|--8----0--10------0--5--|--L--7--3----3--3--3--3--|


  Q    E   Q.     E   E     E  E  E  E  E  E  E  E     Q    E   Q.     E  E   
-------------------------|--------------------------|------------------------|
-------------------------|--------------------------|------------------------|
-------------------------|--------------------------|------------------------|
--8----0--10------0--12--|--L--0--0--0--0--0--0--0--|--8----0--10------0--5--|


  E  E  Q    E  E  E  E     Q    E   Q.     E   E     E  E  E  E  E  E  E  E   
-------------------------|-------------------------|--------------------------|
-------------------------|-------------------------|--------------------------|
-------------------------|-------------------------|--------------------------|
--L--7--3----3--3--3--3--|--8----0--10------0--12--|--L--0--0--0--0--0--0--0--|


  Q    E   Q.     E  E     E  E  Q    E  E  E  E     Q    E   Q.     E   E   
------------------------|-------------------------|-------------------------|
------------------------|-------------------------|-------------------------|
------------------------|-------------------------|-------------------------|
--8----0--10------0--5--|--L--7--3----3--3--3--3--|--8----0--10------0--12--|


  E  E  E  E  E  E  E  E     Q    E   Q.     E  E     E  E  Q    E  E  E  E   
--------------------------|------------------------|-------------------------|
--------------------------|------------------------|-------------------------|
--------------------------|------------------------|-------------------------|
--L--0--0--0--0--0--0--0--|--8----0--10------0--5--|--L--7--3----3--3--3--3--|


  W                   H        E  E  E  E     W                 
-------------------|-----------------------|-------------------|
-------------------|-----------------------|-------------------|
-------------------|-----------------------|-------------------|
--0----------------|--L--------3--4--5--0--|--L----------------|


  H        E  E  E  E     W                   H        E  E  E  E   
-----------------------|-------------------|-----------------------|
-----------------------|-------------------|-----------------------|
-----------------------|-------------------|--------------------5--|
--L--------3--4--5--0--|--L----------------|--L--------3--4--5-----|


  E  E  E  Q    E  E  E     E  E  E  E  E  E  E  E   
-------------------------|--------------------------|
-------------------------|--------------------------|
--L--5-----3----3-----1--|--L--1--------------------|
-------------------------|-----------2--3--4--5--0--|


  E  S S E  S S E  S S E  E     E  S S E  E  E  E  E  E   
-----------------------------|---------------------------|
-----------------------------|---------------------------|
---------5------3------6--5--|--L------5-----------------|
--L--0-0----0-0----0-0-------|-----0-0----0--3--4--5--0--|


  E  S S E  S S E  S S E  E     E  S S E  E  E  E  E  E   
-----------------------------|---------------------------|
-----------------------------|---------------------------|
---------5------3------6--5--|--L------5-----------------|
--L--0-0----0-0----0-0-------|-----0-0----0--3--4--5--0--|


  E  S S E  S S E  S S E  E     E  S S E  E  E  E  E  E   
-----------------------------|---------------------------|
-----------------------------|---------------------------|
---------5------3------6--5--|--L------5--------------5--|
--L--0-0----0-0----0-0-------|-----0-0----0--3--4--5-----|


  E  E  E  Q    E  E  E     E  E  E  E  E  E  E  E     H.           E  E   
-------------------------|--------------------------|---------------------|
-------------------------|--------------------------|---------------------|
--L--5-----3----3-----1--|--L--1-----------------5--|--L------------L--4--|
-------------------------|-----------2--3--4--5-----|---------------------|


  H.           E  E     H.           E  E     H.           E  E   
---------------------|---------------------|---------------------|
---------------------|---------------------|---------------------|
--L------------L--3--|--L------------L--1--|--L------------L--1--|
---------------------|---------------------|---------------------|


  H.           E  E     Q.     Q    Q    E     Q    E  Q.     E  E   
---------------------|----------------------|-----------------------|
---------------------|----------------------|-----------------------|
--L------------L--0--|--L-------------------|-------x--5------x--5--|
---------------------|---------3----2----0--|--L--------------------|


  Q    E  Q.     E  E     H.           E  E     H.           E  E   
-----------------------|---------------------|---------------------|
-----------------------|---------------------|---------------------|
--L----x--5------x--5--|--L------------L--4--|--L------------L--3--|
-----------------------|---------------------|---------------------|


  H.           E  E     H.           E  E     H.           E  E   
---------------------|---------------------|---------------------|
---------------------|---------------------|---------------------|
--L------------L--1--|--L------------L--1--|--L------------L--0--|
---------------------|---------------------|---------------------|


  Q.     Q    Q    E     Q    E  Q.     E  E     Q    E  Q.     E  E   
----------------------|-----------------------|-----------------------|
----------------------|-----------------------|-----------------------|
--L-------------------|-------x--5------x--5--|--L----x--5------x--5--|
---------3----2----0--|--L--------------------|-----------------------|


  H.           E  E     E  E  E  E  E  E  E  E     E  E  E  E  E  E  E  E   
---------------------|--------------------------|--------------------------|
---------------------|--------------------------|--------------------------|
---------------------|--------------------------|--1--1--1--3--3--3--3--5--|
------------------0--|--L--0--0--0--0--0--0--0--|--------------------------|


  E  E  E  E  E  E  E  E     E  E  E  E  E  E  E  E   
--------------------------|--------------------------|
--------------------------|--------------------------|
--L--------------8--7--L--|--1--1--1--3--3--3--3--5--|
-----0--0--0--0-----------|--------------------------|


  E  E  E  E  E  E  E  E     E  E  E  E  E  E  E  E   
--------------------------|--------------------------|
--------------------------|--------------------------|
--L-----------------------|--1--1--1--3--3--3--3--5--|
-----0--0--0--0--0--0--0--|--------------------------|


  E  E  E  E  E  E  E  E     E  E  E  E  E  E  E  E   
--------------------------|--------------------------|
--------------------------|--------------------------|
--L--------------8--7--L--|--1--1--1--3--3--3--3--5--|
-----0--0--0--0-----------|--------------------------|


  E  E  E  E  E  E  E  E     E  E  E  E  E  E  E  E   
--------------------------|--------------------------|
--------------------------|--------------------------|
--L-----------------------|--1--1--1--3--3--3--3--5--|
-----0--0--0--0--0--0--0--|--------------------------|


  E  E  E  E  E  E  E  E     E  E  E  E  E  E  E  E   
--------------------------|--------------------------|
--------------------------|--------------------------|
--L--------------8--7--L--|--1--1--1--3--3--3--3--5--|
-----0--0--0--0-----------|--------------------------|


  E  E  E  E  E  E  E  E     E  E  E  E  E  E  E  E   
--------------------------|--------------------------|
--------------------------|--------------------------|
--L-----------------------|--1--1--1--3--3--3--3--5--|
-----0--0--0--0--0--0--0--|--------------------------|


  E  E  E  E  E  E  E  E     E  S S E  S S E  S S E  S S  
--------------------------|------------------------------|
--------------------------|------------------------------|
--L--------------8--7--L--|--1--1-1-1--1-1-1--1-1-1--1-1-|
-----0--0--0--0-----------|------------------------------|


  E  S S E  S S E  S S E  S S    E  S S E  S S E  S S E  S S  
------------------------------|------------------------------|
------------------------------|------------------------------|
--1--1-1-1--1-1-1--1-1-1--1-1-|--3--3-3-3--3-3-3--3-3-3--3-3-|
------------------------------|------------------------------|


  E  S S E  S S E  S S E  S S    E  S S E  S S E  S S E  S S  
------------------------------|------------------------------|
------------------------------|------------------------------|
--3--3-3-3--3-3-3--3-3-3--3-3-|--1--1-1-1--1-1-1--1-1-1--1-1-|
------------------------------|------------------------------|


  E  S S E  S S E  S S E  E     E  S S E  S S E  S S E  S S  
--------------------------3--|------------------------------|
-----------------------------|------------------------------|
--1--1-1-1--1-1-1--1-1-1-----|--3--3-3-3--3-3-3--3-3-3--3-3-|
-----------------------------|------------------------------|


  E  S S E  S S E  S S E  E      S S  S S  S S  S S  S S  S S  S S  S S  
-----------------------------|--10-7----7-------------------------------|
-----------------------------|-------10---10-7-10-7----7----------------|
--3--3-3-3--3-3-3--3-3-3--3--|----------------------10---10-8-10-8----8-|
-----------------------------|-------------------------------------10---|


   Q    E   E  E  E  Q       Q    Q    Q    Q       Q    Q    Q    Q     
--------------------------|----------------------|----------------------|
-----------10--L--7-------|----------------------|----------------------|
--10----8------------5----|--L-------------------|----------------------|
--------------------------|-------0---------0----|-------0---------0----|


  Q    Q    Q    Q       Q    Q    Q    Q       Q    Q    Q    Q     
----------------------|----------------------|----------------------|
----------------------|----------------------|----------------------|
----------------------|----------------------|----------------------|
-------0---------0----|-------0---------0----|-------0---------0----|


  Q    Q    Q    Q       Q    Q    Q    Q       Q    Q    Q    Q     
----------------------|----------------------|----------------------|
----------------------|----------------------|----------------------|
----------------------|----------------------|----------------------|
-------0---------0----|-------0---------0----|-------0---------0----|


  Q    Q    Q    Q       Q    Q    Q    Q       Q    Q    Q    Q     
----------------------|----------------------|----------------------|
----------------------|----------------------|----------------------|
----------------------|----------------------|----------------------|
-------0---------0----|-------0---------0----|-------0---------0----|


  Q    Q    Q    Q       Q    Q    Q    Q       Q    Q    Q    Q     
----------------------|----------------------|----------------------|
----------------------|----------------------|----------------------|
----------------------|----------------------|----------------------|
-------0---------0----|-------0---------0----|-------0---------0----|


  Q    Q    Q    Q       E  E  E  E  E  E  E  E     E  E  E  E  E  E   Q      
----------------------|--------------------------|---------------------------|
----------------------|--------------------------|---------------------------|
----------------------|--------------------------|---------------------------|
-------0---------0----|-----0--0--0--0--0--0--0--|--0--0--0--0--0--0--12\----|


  Q    E   Q.     E   E     E  E  E  E  E  E  E  E     Q    E   Q.     E  E   
-------------------------|--------------------------|------------------------|
-------------------------|--------------------------|------------------------|
-------------------------|--------------------------|------------------------|
--8----0--10------0--12--|--L--0--0--0--0--0--0--0--|--8----0--10------0--5--|


  E  E  Q    E  E  E  E     Q    E   Q.     E   E     E  E  E  E  E  E  E  E   
-------------------------|-------------------------|--------------------------|
-------------------------|-------------------------|--------------------------|
-------------------------|-------------------------|--------------------------|
--L--7--3----3--3--3--3--|--8----0--10------0--12--|--L--0--0--0--0--0--0--0--|


  Q    E   Q.     E  E     E  E  Q    E  E  E  E     Q    E   Q.     E   E   
------------------------|-------------------------|-------------------------|
------------------------|-------------------------|-------------------------|
------------------------|-------------------------|-------------------------|
--8----0--10------0--5--|--L--7--3----3--3--3--3--|--8----0--10------0--12--|


  E  E  E  E  E  E  E  E     Q    E   Q.     E  E     E  E  Q    E  E  E  E   
--------------------------|------------------------|-------------------------|
--------------------------|------------------------|-------------------------|
--------------------------|------------------------|-------------------------|
--L--0--0--0--0--0--0--0--|--8----0--10------0--5--|--L--7--3----3--3--3--3--|


  Q    E   Q.     E   E     E  E  E  E  E  E  E  E     Q    E   Q.     E  E   
-------------------------|--------------------------|------------------------|
-------------------------|--------------------------|------------------------|
-------------------------|--------------------------|------------------------|
--8----0--10------0--12--|--L--0--0--0--0--0--0--0--|--8----0--10------0--5--|


  E  E  Q    E  E  E  E     Q    E   Q.     E   E     E  E  E  E  E  E  E  E   
-------------------------|-------------------------|--------------------------|
-------------------------|-------------------------|--------------------------|
-------------------------|-------------------------|--------------------------|
--L--7--3----3--3--3--3--|--8----0--10------0--12--|--L--0--0--0--0--0--0--0--|


  Q    E   Q.     E  E     E  E  Q    E  E  E  E     Q    E   Q.     E   E   
------------------------|-------------------------|-------------------------|
------------------------|-------------------------|-------------------------|
------------------------|-------------------------|-------------------------|
--8----0--10------0--5--|--L--7--3----3--3--3--3--|--8----0--10------0--12--|


  E  E  E  E  E  E  E  E     Q    E   Q.     E  E     E  E  Q     H          
--------------------------|------------------------|-----------------------||
--------------------------|------------------------|-----------------------||
--------------------------|------------------------|-----------------------||
--L--0--0--0--0--0--0--0--|--8----0--10------0--5--|--L--7--3\-------------||




Duration Legend
---------------
W - whole
H - half
Q - quarter
E - 8th
S - 16th
T - 32nd
X - 64th
. - note dotted
|-n-|  - n-tuplets


Tablature Legend
----------------
L - tied note
x - dead note
g - grace note
(n) - ghost note
> - accentuded note
NH - natural harmonic
AH - artificial harmonic
TH - tapped harmonic
SH - semi harmonic
PH - pitch harmonic
h - hammer on
p - pull off
b - bend
br - bendRelease
pb - preBend
pbr - preBendRelease
brb - bendReleaseBend
\n/ - tremolo bar dip
\n - tremolo bar dive
-/n - tremolo bar Release up
/n\ - tremolo bar inverted dip
/n - tremolo bar return
-\n - tremolo bar Release down
S - shift slide
s - legato slide
/ -  slide into from below or out of upwards
\ -  slide into from above or out of downwards
~ - vibrato
W - wide vibrato
tr - trill
TP - tremolo picking
T - tapping
S - slap
P - pop
< - fade in
^ - brush up
v - brush down

Special thanks to "jonathankim12" for making the guitar pro tab for this song.
This tab's been taken from this gp tab:

http://tabs.ultimate-guitar.com/t/trivium/a_gunshot_to_the_head_of_trepidation_ver4_guitar_pro.htm
Comments