Trivium - A Gunshot To The Head Of Trepidation Chords & Tabs

 

A Gunshot To The Head Of Trepidation Chords & Tabs

Trivium Chords & Tabs

Version: 2 Type: Bass Tab 0 ratings
1 star 2 stars 3 stars 4 stars 5 stars
comments

A Gunshot To The Head Of Trepidation Bass Tab

You may be asking yourself "wtf theres no bass solo in Gunshot"

Well there is if you make one =P This goes along with the Dual Guitar solo that starts 
roughly 4:03 in the song.

Section 1:
|------------------5---------575-----------------|
|------7-5------57---875---8-------7-5--575------|
|--5-8-----8788-----------------------8-----8-7--|
|------------------------------------------------|

Section 2:
|---------------8-----5----5----575-|
|-----75-----57---875---75---75-----|
|--54---8788------------------------|
|-----------------------------------|

Section 3:
|-------------------------------------------------------------|
|------3---3--75----875-----778-----3---3--75----875------778-|
|--535---5-------78----8788-----535---5-------78-----8788-----|
|-------------------------------------------------------------|
[ Tab from: http://www.guitartabs.cc/tabs/t/trivium/a_gunshot_to_the_head_of_trepidation_btab_ver_2.html ]
Section 4:
|-12-10----12-10----12-10------------------14-14-------14-14-|
|-------12-------12-------12---12-12-12-12-------12-12-------|
|------------------------------------------------------------|
|------------------------------------------------------------|

Section 5:
|------------14-12---14-12----14-12------------------15-15-|
|12-12-12-12-------14------14-------14---14-14-14-14-------|
|----------------------------------------------------------|
|----------------------------------------------------------|

Section 6:
|-------15-15-------------|
|-14-14-------14-14-14-14-|
|-------------------------|
|-------------------------|

*Play through sections 4-6 consecutively and repeat it twice


Section 7:
|---17-15--------------------------------13b14-|
|---------17-15--------------17-14-17-14-------|
|---------------17-15-17-15--------------------|
|----------------------------------------------|
Comments