Trivium - A Gunshot To The Head Of Trepidation Chords & Tabs

 

A Gunshot To The Head Of Trepidation Chords & Tabs

Trivium Chords & Tabs

Version: 1 Type: Bass Tab 0 ratings
1 star 2 stars 3 stars 4 stars 5 stars
comments

A Gunshot To The Head Of Trepidation Bass Tab

   
-------------------------------------------------------------------------------
A Gunshot To The Head Of Trepidation - Trivium
-------------------------------------------------------------------------------

Tabbed By : madmurphy
e-mail: s_murphy88@hotmail.com

Tuning:Drop D

Intro
G|--------------------------------------------------|
D|--------------------------------------------------|
A|--5----4----7----8----5----4----10----8-----------|
D|-------------------------------------------0-12/--|

Main Riff
G|---------------------------------------------------------|
D|---------------------------------------------------------| x2
A|--5----5\4----4/7----7/8-------5----5\4----4/10----10\8--|
D|---0000---0000---0000---0000000-0000---0000----0000------|

Other Riff Thingy
G|------------------------------------|--------------------------------|
D|----7-5-7---7-5-7---7-5-7-8-5-7-----|--------------------------------|
A|--------------------------------8---|-(3rd & 4th)--------------------|
D|--0-------7-------8-----------------|-------------0-------7-------8--|

Umm... Yea
G|----------------------------------------------|
D|----------------------------------------------|
A|----------------------------------------------|
D|--0---5---7---8---3-2-0---5---7---8---3-2-0---|

G|------------------------------------------------------|
D|------------------------------------------------------|
A|-1---3---5\-------------1---3---------------------x2--|
D|------------0-0-0-0-0-0---------5--5/7--3-3-3-3-3-----|
[ Tab from: http://www.guitartabs.cc/tabs/t/trivium/a_gunshot_to_the_head_of_trepidation_btab.html ]
Bridge Type Bit
G|----------------------------------------------------------------|
D|----------------------------------------------------------------|
A|-----------------------------------5-5---3-3---2-2--------------|
D|--0----3-4-5-0----3-4-5-0----3-4-5-----0-----0-----0-2-3-4-5-0--|

Im Hungry...........Oh Yeah These Are The Solo Backing Bits
G|---------------------------------------------------------------|
D|---------------------------------------------------------------|
A|----5----3----6-5----5-----------x3-5-5---3-3---2-2------------|
D|-00---00---00-----00---0-3-4-5-0--------0-----0-----0-2-3-4-5--|
 
G|-----------------------------------------------------|
D|-----------------------------------------------------|
A|-5----4----3----2----1----0------------5\---5\---5\--| x2
D|-----------------------------3-2-0---0----0----0-----|

G|------------------------------|
D|------------------------------| 
A|-----------------1-1-1-3-3-3--| x4
E|-0-0-0-0-0-0-0-0--------------|

G|-----------------------------------------------------------------|
D|-----------------------------------------------------------------|
A|--1-1-1-1-1-1-1-1-1-1-1-1-1-1-1-3-3-3-3-3-3-3-3-3-3-3-3-3-3-3-3--| x2
E|-----------------------------------------------------------------|

(Sry im not good enuf 2 tab tht fast bit lol any1 figures it out tho plz email me)

My Mate Darren Should Be Doing This (outro)
G|----------------|---------------------|
D|----------------|---------------------|
A|-1---3---5\--x4-|---------------------|
D|----------------|-0-0-0-0-0-0-0-0-0-0-|

G|----------------------------------------------|
D|----------------------------------------------|
A|-1--3--5\---------------1--3---------------x6-|
D|----------0-0-0-0-0-0-0------5-5/7-3-3-3-3----|

Lazy Sod...........
I know its not perfect but hey its better than the 1 on mxtabs 

P.S. if u steal this tab u r queer i.d.s.t

| /  slide up
| \  slide down
| h  hammer-on
| p  pull-off
| ~  vibrato
| +  harmonic
| x  Mute note
===============================================================================
Comments