Trivium - A Grey So Dark Chords & Tabs

 

A Grey So Dark Chords & Tabs

Trivium Chords & Tabs

Version: 2 Type: Tab 0 ratings
1 star 2 stars 3 stars 4 stars 5 stars
comments

A Grey So Dark Tab

   
Band:  Trivium
Song:  A Grey So Dark
Album: In Waves (2011)

Tuning: Drop C# (C#, G#, C#, F#, A#, D#)
(Tune all strings down half a step then drop tune)

Hammer on:    h
Pull off:     p
Slide up:     /
Slide down:   \
Vibrato:      ~~~
Bend up:      BU(?)
Muted note:   x

Guitar 1: Matt Heafy
Guitar 2: Corey Beaulieu

Intro
Both Guitars
|----------|
|----------|
|----------|
|----------|
|-12\------|
|-12\------|

Guitar 1
|-------------------|------|
|-------------------|------|
|-------------------|------|
|-10-----------10---|---10-|
|-------------------|------|
|----7-7-7---7------|-7----|

Guitar 2
|-------------------|------|
|-------------------|------|
|-------------------|------|
|-------------------|------|
|--7-7-7-7----------|------|
|--7-7-7-7----------|------|

Guitar 1
|-----------------------|-------|
|-----------------------|-------|
|-----------------------|-------|
|-----------------------|-------|
|-----------------------|-------|
|-14-10-10-10---10-14---|-10-14-|

Guitar 2
|-----------------------|-------|
|-----------------------|-------|
|-----------------------|-------|
|-10-10-10-10-----------|-------|
|-10-10-10-10-----------|-------|
|-10-10-10-10-----------|-------|

Guitar 1
|-----------------|-----|
|-----------------|-----|
|-----------------|-----|
|-9-----------9---|---9-|
|-----------------|-----|
|---5-5-5---5-----|-5---|

Guitar 2
|-----------------|-----|
|-----------------|-----|
|-----------------|-----|
|-5-5-5-5---------|-----|
|-5-5-5-5---------|-----|
|-5-5-5-5---------|-----|

Guitar 1
|-----------------|----------|---------------|
|-----------------|----------|---------------|
|-----------------|----------|---------------|
|-7---------------|----------|-3-------------|
|-----------------|----------|-3-------------|
|---3-3-3---3-2---|-/9---6---|-3-------------|

Guitar 2
|-----------------|----------|---------------|
|-----------------|----------|---------------|
|-----------------|----------|---------------|
|-3-3-3-3---------|----------|-3-------------|
|-3-3-3-3---------|----------|-3-------------|
|-3-3-3-3---3-2---|----------|-3-------------|

Verse
Both Guitars
|---------------------------------|
|---------------------------------|
|---------------------------------|
|---------------------------------|
|-7-----------7-------------------|
|-7---7-7-7-7-7---7-7-7-7-7-7-7-7-|

|---------------------------------|
|---------------------------------|
|---------------------------------|
|---------------------------------|
|---------------------------------|
|-7-7-7-7-7-7-7-7-7-7-7-7-7-7-7-7-|

|---------------------------------|
|---------------------------------|
|---------------------------------|
|---------------------------------|
|-3-----------3-------------------|
|-3---3-3-3-3-3---3-3-3-3-3-3-3-3-|

|---------------------------------|
|---------------------------------|
|---------------------------------|
|---------------------------------|
|---------------------------------|
|-3-3-3-3-3-3-3-3-3-3-3-3-3-3-3-3-|

|---------------------------------|
|---------------------------------|
|---------------------------------|
|---------------------------------|
|-7-----------7-------------------|
|-7---7-7-7-7-7---7-7-7-7-7-7-7-7-|

|---------------------------------|
|---------------------------------|
|---------------------------------|
|---------------------------------|
|---------------------------------|
|-7-7-7-7-7-7-7-7-7-7-7-7-7-7-7-7-|

Pre Chours
Guitar 1
|---------------------------------|---------------------------------|
|---------------------------------|---------------------------------|
|---------------------------------|---------------------------------|
|---------------------------------|---------------------------------|
|-3-3-3-3-3-3-3-3-3-3-3-3-3-3-3-3-|-7-7-7-7-7-7-7-7-7-7-7-7-7-7-7-7-|
|-3-3-3-3-3-3-3-3-3-3-3-3-3-3-3-3-|-7-7-7-7-7-7-7-7-7-7-7-7-7-7-7-7-|

Guitar 2
|---------------------------------|---------------------------------|
|---------------------------------|---------------------------------|
|-9---10---9---10----9h10p9-------|-9-----9-----9-----9-----9-------|
|--10---10--10---10--------12-10--|--10----10----10----10----9----9-|
|----8----8---8----8--------------|----12----12----12----12----12---|
|---------------------------------|---------------------------------|

Guitar 1
|---------------------------------|---------------------------------|
|---------------------------------|---------------------------------|
|---------------------------------|---------------------------------|
|---------------------------------|-7-------------------------------|
|-3-3-3-3-3-3-3-3-3-3-3-3-3-3-3-3-|-7-------------------------------|
|-3-3-3-3-3-3-3-3-3-3-3-3-3-3-3-3-|-7-------------------------------|

Guitar 2
|---------------------------------|---------------------------------|
|---------------------------------|---------------------------------|
|-9---10---9---10----9h10p9-------|---------------------------------|
|--10---10--10---10--------12-10--|---------------------------------|
|----8----8---8----8--------------|---------------------------------|
|---------------------------------|---------------------------------|

Chorus
Both Guitars
|-------------------|------|
|-------------------|------|
|-------------------|------|
|-10-----------10---|---10-|
|-------------------|------|
|----7-7-7---7------|-7----|

|-----------------------|-------|
|-----------------------|-------|
|-----------------------|-------|
|-----------------------|-------|
|-----------------------|-------|
|-14-10-10-10---10-14---|-10-14-|

Guitar 1
|-----------------|---------|
|-----------------|---------|
|-----------------|---------|
|-5-5-5-5-5-5-5-5-|-5-5-5-5-|
|-5-5-5-5-5-5-5-5-|-5-5-5-5-|
|-5-5-5-5-5-5-5-5-|-5-5-5-5-|
[ Tab from: http://www.guitartabs.cc/tabs/t/trivium/a_grey_so_dark_tab_ver_2.html ]
Guitar 2
|-------------------------|-------------|
|-------------------------|-------------|
|-12-12-12-12-12-12-12-12-|-12-12-12-12-|
|-------------------------|-------------|
|-------------------------|-------------|
|-------------------------|-------------|

Guitar 1
|-----------------|----------|
|-----------------|----------|
|-----------------|----------|
|-3-3-3-3-3-3-2---|----------|
|-3-3-3-3-3-3-2---|----------|
|-3-3-3-3-3-3-2---|-/9---6---|

Guitar 2
|------------------------|------------|
|------------------------|-/12--------|
|-10-----10-14-----14----|-------13---|
|---------------------14-|------------|
|------------------------|------------|
|------------------------|------------|

Guitar 1 repeats the last note of the Intro (F5) and then repeats
the verse

Guitar 2
|-------------------------------------------------|
|-13----13----13----13----13----13----10----10----|
|----10----10----10----10----10----10----10----10-|
|-------------------------------------------------|
|-------------------------------------------------|
|-------------------------------------------------|

|-------------------------------------------------|
|-17----17----17----17----17----17----17----17----|
|----14----14----14----14----14----14----14----14-|
|-------------------------------------------------|
|-------------------------------------------------|
|-------------------------------------------------|

Repeat Pre Chorus

Repeat Chrous

Solo 1
Guitar 2
|--------12BU(13)(12)(13)-|-12----------15----------|
|-------------------------|----15-13-12----13-12-10-|
|-/10---------------------|-------------------------|
|-------------------------|-------------------------|
|-------------------------|-------------------------|
|-------------------------|-------------------------|

|-------------15-13-12-10-|-19BU(20)-19-17-------------|
|-10-12-13-15-------------|----------------18----------|
|-------------------------|-------------------17-16-17-|
|-------------------------|----------------------------|
|-------------------------|----------------------------|
|-------------------------|----------------------------|

|------20----19-------15-|----13----12-------------|
|------------------------|----------------15----13-|
|-14------17----17-12----|-12----12----12----12----|
|------------------------|-------------------------|
|------------------------|-------------------------|
|------------------------|-------------------------|

|------------------------|
|-12h13p12---------------|
|----------14-12-14------|
|------------------------|
|------------------------|
|------------------------|

|-------------------------------------------------------------12-13-15-17-|
|-------------------------------------------------------13-15-------------|
|-------------------------------------12-14-16-12-14-16-------------------|
|-------------------12-14-15-12-14-15-------------------------------------|
|-12-14-15-12-14-15-------------------------------------------------------|
|-------------------------------------------------------------------------|

|-17BU(19)-------|
|----------------|
|----------------|
|----------------|
|----------------|
|----------------|

Interlude
Guitar 1
|----------------------|--------------------|
|-------------------13-|-13--------------13-|
|-14-------------14----|--------------14----|
|----------------------|--------------------|
|----------------------|--------------------|
|----------------------|--------------------|

|----------------------|-15---13---12---13-12-|
|-12----------12-13-15-|----------------------|
|----------12----------|----------------------|
|----------------------|----------------------|
|----------------------|----------------------|
|----------------------|----------------------|

Solo 2
Guitar 1
|-5--------------------|-8-5---5-------------------------|
|-8BU(10)--------------|-----8---8-5-8-5---5-------------|
|----------------------|-----------------7---7-5-7-5---5-|
|----------------------|-----------------------------7---|
|----------------------|---------------------------------|
|----------------------|---------------------------------|

|---------------------------------|---------------------------|
|---------------------------------|---------------------------|
|-7-5---5-7-5-7-5---5-7-5-7-5---5-|-7-5---5-7-5---5-7BU(9)----|
|-----7-----------7-----------7---|-----7-------7-------------|
|---------------------------------|---------------------------|
|---------------------------------|---------------------------|

|----------------------|---------------------|
|------13------13------|-13---13-15-15-------|
|-9-10----9-10----9-10-|----9----------------|
|----------------------|---------------------|
|----------------------|---------------------|
|----------------------|---------------------|

|-------------------------------------------------|
|-13-10----10-13-10-13-10----10-13-10-13-10----10-|
|-------12----------------12----------------12----|
|-------------------------------------------------|
|-------------------------------------------------|
|-------------------------------------------------|

|---------------------------------------|
|-13-10----10-13-10----10---------------|
|-------12----------12----12BU(14)------|
|---------------------------------------|
|---------------------------------------|
|---------------------------------------|

Solo 1 and Interlude Rhythm
|-----------------|-----------------|
|-----------------|-----------------|
|-----------------|-----------------|
|-----------------|-----------------|
|-----------------|-----------------|
|-3-3-3-3-3-3-3-3-|-7-7-7-7-7-7-7-7-|

|-----------------|-----------------|
|-----------------|-----------------|
|-----------------|-----------------|
|-----------------|-----------------|
|-----------------|-3-3-3-3-5-5-5-5-|
|-5-5-5-5-5-5-5-5-|-----------------|

Solo 2 Rhythm
|-----------------|-----------------|
|-----------------|-----------------|
|-----------------|-----------------|
|-3---------------|-7---------------|
|-3---------------|-7---------------|
|-3---------------|-7---------------|

|-----------------|-----------------|
|-----------------|-----------------|
|-----------------|-----------------|
|-3---------------|-7---------------|
|-3---------------|-7---------------|
|-3---------------|-7---------------|

That's all
Please Rate
Comments