Tripping Daisy - Waited A Light Year Chords & Tabs

 

Waited A Light Year Chords & Tabs

Tripping Daisy Chords & Tabs

Version: 1 Type: Tab 0 ratings
1 star 2 stars 3 stars 4 stars 5 stars
comments

Waited A Light Year Tab

e|----------------|--------------|-------------|-------------|
B|----------------|--------------|-------------|-------------|
G|---------0------|--------0-----|-------0-----|-------0-----|
D|------10---10---|------9---9---|-----7---7---|-----7---7---|
A|----0---------0-|----0-------0-|---0-------0-|---0-------0-|
E|-12-------------|-10-----------|-9-----------|-9-----------|


|--------------|--------------|---------------|--------------|
|--------------|--------------|---------------|--------------|
|--------0-----|--------0-----|---------0-----|--------0-----|
|------0---0---|------0---0---|-------0---0---|------0---0---|
|---10-------0-|----9-------0-|----12-------0-|---10-------0-|
|-8------------|-10-----------|-10------------|-13-----------|

[ Tab from: http://www.guitartabs.cc/tabs/t/tripping_daisy/waited_a_light_year_tab.html ]
|---------------|---------------|
|---------------|---------------|
|---------0-----|---------0-----|
|-------0---0---|-------0---0---|
|----10-------0-|----10-------0-|
|-12------------|-12------------|

i am DAMN sure that that's what one guitar plays. other guitars, that's a different story...

the rhythm guitar during heavy part that comes after that is

|-------------|-------------|-------------|-------------|
|-------------|-------------|-------------|-------------|
|-------------|-------------|-------------|-------------|
|-7-7-7-7-7-7-|-------------|-8-8-8-8-8-8-|-7-7-7-7-7-7-|
|-7-7-7-7-7-7-|-7-7-7-7-7-7-|-8-8-8-8-8-8-|-5-5-5-5-5-5-|
|-5-5-5-5-5-5-|-8-8-8-8-8-8-|-6-6-6-6-6-6-|-7-7-7-7-7-7-|

(i hope i have that right...i don't have my guitar in front of me)
Comments