Tripod - Love Scod And Gatesy Chords & Tabs

 

Love Scod And Gatesy Chords & Tabs

Tripod Chords & Tabs

Version: 1 Type: Tab 0 ratings
1 star 2 stars 3 stars 4 stars 5 stars
comments

Love Scod And Gatesy Tab

   
Tripod: "Love Scod and Gatesy"

Intro:
E --0------0----------0---0--------------0---------------0-------|
B --2----2----------0-----0--------3------------3--------3-------|
G --2-------------1-------1------2---2------2-----2------2-------|
D --2--------------------------4-------4------4-----4p0----------|
A --0-0--------0--------0----0-----------------------------------|
E ---------------------------------------------------------------|

E ---------0-------------0---0----------------0------------------|
B -------2---2---2-----0-----0--------3------------3-------------|
G -----2-------2-----1-------1------2------2----------2----------|
D --------------------------------4------4------4--------4p0-----|
A ---0------------0-------0----0---------------------------------|
E ---------------------------------------------------------------|
  Six years we've been together now

E ---------0-------------0---0----------------0------------------|
B -------2---2---2-----0-----0--------3------------3-------------|
G -----2-------2-----1-------1------2------2----------2----------|
D --------------------------------4------4------4--------4p0-----|
A ---0------------0-------0----0---------------------------------|
E ---------------------------------------------------------------|
  Just three larrikins knockin' about

E ---2------2--2--------0------0--0------------------------------|
B ---2------2--2--------0------0--0------------------------------|
G ---2------2--2--------1------1--1------------------------------|
D ---4-----------4-4----2-----------2-2--------------------------|
A ---4-----------4-4----2-----------2-2--------------------------|
E ---2-----------4-4----0-----------0-0--------------------------|
  Remember when we broke into the police station and

E ---0------0--0--0-----0------0--0--0---------------------------|
B ---2------2--2--2-----3------3--3--3---------------------------|
G ---2------2--2--2-----2------2--2--2---------------------------|
D ---2------2--2--2-----4------4--4--4---------------------------|
A ---0------0--0--0-----0------0--0--0---------------------------|
E ---------------------------------------------------------------|
  Tried to steal all the cops... That was a

E ---2------2--2--------2------2--2------------------------------|
B ---2------2--2--------2------2--2------------------------------|
G ---2------2--2--------2------2--2------------------------------|
D ---4-----------4-4----4-----------4----------------------------|
A ---4-----------4-4----4-----------4----------------------------|
E ---2-----------4-4----2-----------4----------------------------|
  Bad idea... but we were

E ---0------0--0--------0------0--0------------------------------|
B ---0------0--0--------0------0--0------------------------------|
G ---1------1--1--------1------1--1------------------------------|
D ---2-----------2-2----2-----------2----------------------------|
A ---2-----------2-2----2-----------2----------------------------|
E ---0-----------2-2----0-----------0----------------------------|
  Naive - "C'mon it wasn't that bad an idea!

E ---------0-------------0---0------0----0-----0-----------------|
B -------2---2---2-----0-----0------2----2-----2-----------------|
G -----2-------2-----1-------1------2-------2--------------------|
D ----------------------------------2----------------------------|
A ---0------------0-------0---------0----------------------------|
E ---------------------------------------------------------------|
  I reckon it would have worked if we'd all worn the cat suits and
  done cartwheels to avoid the lasers!" ... "thanks"

Strumming:
A               E                 D (open top E string)
I thought those times would never change...
A                 E                           D (open top E string)
I thought we'd be shooting fruit launchers forever...
[ Tab from: http://www.guitartabs.cc/tabs/t/tripod/love_scod_and_gatesy_tab.html ]
F#m                 E
But now we've grown older and we're more
A                  D (open top E string)
Comfortable in our skin... "yeuh!"
F#m          E
All kinds of grown-up feelings start
A               D (open top E string)
Slowly creepin' in

Continuing the chord of D with open top E string as Yon says:
"You know, I've got hair on my shoulders now,
Do you guys have that?"

(Normal)D
Everyday...
D                C                      A
Everyday without you seems a little bit colder...
D
Everyday...
D                  C                     A
When I think about you, I'm a little bit bolder...

F#m       Bm                E
Maybe the time has come, to run away...

"Where're we goin'?"


E ---------0-------------0---0----------------0------------------|
B -------2---2---2-----0-----0--------3------------3-------------|
G -----2-------2-----1-------1------2------2----------2----------|
D --------------------------------4------4------4--------4p0-----|
A ---0------------0-------0----0---------------------------------|
E ---------------------------------------------------------------|
  I can't stop thinkin' of you...
  "Thanks!" "Not you..."

E ---------0-------------0---0----------------0------------------|
B -------2---2---2-----0-----0--------3------------3-------------|
G -----2-------2-----1-------1------2------2----------2----------|
D --------------------------------4------4------4--------4p0-----|
A ---0------------0-------0----0---------------------------------|
E ---------------------------------------------------------------|
  Ain't no nothin' we can't love each other through...
"Ain't no nothin' we can't... that's a... quadruple negative! Well done!"

F#m                   E                      A               D
So late at night when heaven explodes and volcanoes start to burn...
F#m            E                         A              D
I realised the naked truth that it's for you for whom I yearn...

    F#m                E              E........
"Oh Gatesy will you be mine?"

(pause)                 A
       "Scoddie, yes I will!"

Repeat:
E --0---0--0--0----0---0---0---2---2h3-3p2----2---2h3-3p2------|
B --2---3--3--2----2---2h3-3---3---3-----3----3---3-----3------|
G --2---2--2--2----2---2---2---2---2-----2----2---2-----2------|
D --2---2--2--2----2---2---2---0---0-----0----0---0-----0------|
A --0---0--0--0----0---0---0-----------------------------------|
E -------------------------------------------------------------|

"Uh, you're listening to Simon Hall, the director of this piece."
"This's Gatesy, I performed in it..."
"Uh, this is the scene where uh, Gatesy lowers himself down, up-
 side down in the rain (oh, yeah it was raining at the time wasn't
 it!?) yeah it was raining, and uh, kisses Scod. And it was very
 difficult because he had to pull his mask off and once the mask
 came off (full of water) yeah the rain it went up his nose."
"And Scod's glasses were fogging up..."
"Yeah I remember we had to do 50 takes of this scene..."
"But oh yeah it was funny, we laughed..."
"The bit we're watching now is uh, is Scod uh, standing on top of the
 Eiffel Tower in a bikini, but we felt that this didn't further the
 the story so it was removed from the final cut - (we deleted it)"

(Normal)D
Everyday...
D                C                      A
Everyday without you seems a little bit colder...

"Are there any duo's out there that need a third person?"

D
Everyday...
D                  C                     A
When I think about you, I'm a little bit bolder...

"I don't play the guitar, but people tell me I look funny..."

F#m       Bm                E
Maybe the time has come, to run away...

"Fellas...? Fellas...? ...They've gone..."

               A
To run away...

"Oh, still there!"
Comments