Tripod - Boobs Chords & Tabs

 

Boobs Chords & Tabs

Tripod Chords & Tabs

Version: 1 Type: Tab 0 ratings
1 star 2 stars 3 stars 4 stars 5 stars
comments

Boobs Tab

Tripod- B00BS                                                 by Sean Dunlop

intro
e|--------------------------------------|
b|--------------------------------------|
g|-----777777777777777777777777---------|
d|-----555555555555555555555555---------|
a|--------------------------------------|
E|--------------------------------------|

   'I typed my own name................................BOOBS!  
e|-----------------------------------------------------------|
b|-----------------------------------------------------------|
g|--7777777777777777------------------7777777777777777-------|
d|--5555555555555555-5555555555555555-5555555555555555-7-----|
a|-------------------3333333333333333------------------5-----|
E|-----------------------------------------------------------|
   
   'there goes my day again..........'
e|------------------------------------------------------------
b|------------------------------------------------------------
g|--7777777777777777------------------------------------------
d|--5555555555555555-5555555555555555-99999999-77777777-------
a|-------------------3333333333333333-77777777-55555555-------
E|------------------------------------------------------------

e|------------------------|
b|------------------------|
g|--7777777777777777------|
d|--5555555555555555------|
a|------------------------|
E|------------------------|

       'everyday I have the......'       'but i get ambushed........' 
e|---------------------------------------------------------------------|
b|---------------------------------------------------------------------|
g|---------------------------------------------------------------------|
d|-------------------5-5-5-5-7-7-7-7-------------------7-7-7-7-9-9-9-9-|
a|--7-7-777777777777-3-3-3-3-5-5-5-5--9-9-999999999999-5-5-5-5-7-7-7-7-|
E|--5-5-555555555555------------------7-7-777777777777-----------------|
        ............                      ............
          palm mute                         palm mute   
    
e|-----------|
b|-----------|
g|-----------|
d|--9---7----|
a|--7---5----|
E|-----------|

solo (1st Guitar) 
e|-------------------------------------------------------|
b|----------9-7-9-10-9-7-5-5-555-7-9--9-9-99-5-5/7~---9--|
g|-------------------------------------------------------|
d|-------------------------------------------------------|
a|-------------------------------------------------------|
E|--scratch----------------------------------------------|
[ Tab from: http://www.guitartabs.cc/tabs/t/tripod/boobs_tab.html ]
e|------------------------------------------------------------|
b|--9-7-9-10-9-7-5---10-8-10-11-10-8---10~10--8~--88-10-8-6~--|
g|------------------------------------------------------------|
d|------------------------------------------------------------|
a|------------------------------------------------------------|
E|------------------------------------------------------------|


(2nd Guitar)
e|-----------------------------------------------------------------------|
b|-----------------------------------------------------------------------|
g|--7777777777777777------------------7777777777777777-------------------|
d|--5555555555555555-5555555555555555-5555555555555555-7777777777777-----|
a|-------------------3333333333333333------------------5555555555555-----|
E|-----------------------------------------------------------------------|

e|------------------------------------------------------------
b|------------------------------------------------------------
g|--7777777777777777------------------------------------------
d|--5555555555555555-5555555555555555-99999999-77777777-------
a|-------------------3333333333333333-77777777-55555555-------
E|------------------------------------------------------------

'everyday I have the......'              'but my life's turned........' 
e|---------------------------------------------------------------------|
b|---------------------------------------------------------------------|
g|---------------------------------------------------------------------|
d|-------------------5-5-5-5-7-7-7-7-------------------7-7-7-7-9-9-9-9-|
a|--7-7-777777777777-3-3-3-3-5-5-5-5--9-9-999999999999-5-5-5-5-7-7-7-7-|
E|--5-5-555555555555------------------7-7-777777777777-----------------|
        ............                      ............
          palm mute                         palm mute   

e|-----------|
b|-----------|
g|-----------|
d|--9---7----|
a|--7---5----|
E|-----------|

harmonising    'ooooooo0000000oooooooo0oooo....boo doo boopedoodoodoo'
e|-------------------------------------------------------------------|
b|-------------------------------------------------------------------|
g|--777777777777777777777777------------------7777777777777777-------|
d|--555555555555555555555555-5555555555555555-5555555555555555-7-----|
a|---------------------------3333333333333333------------------5-----|
E|-------------------------------------------------------------------|

'there goes my day again..........'
e|------------------------------------------------------------
b|------------------------------------------------------------
g|--7777777777777777------------------------------------------
d|--5555555555555555-5555555555555555-99999999-77777777-------
a|-------------------3333333333333333-77777777-55555555-------
E|------------------------------------------------------------

'I just cut the crap and type in B00BS'
e|------------------------|-------------|
b|------------------------|-------------|       
g|------------------------|--7~---------|
d|--99999999-77777777-----|--5~---------|
a|--77777777-77777777-----|-------------|
E|------------------------|-------------|
Comments