Triple Helix - Not Here Chords & Tabs

 

Not Here Chords & Tabs

Triple Helix Chords & Tabs

Version: 1 Type: Tab 0 ratings
1 star 2 stars 3 stars 4 stars 5 stars
comments

Not Here Tab

Artist: Triple Helix
Song: Not Here
Tuning: Drop D down a half step

Intro/Verse(Phaser on intro but not during verses)                                  
--------------------------------------------------------
--------------------------------------------------------
-------7---8---10----8---------7----8-------------------
--0-0----0---0----0-------0-0----0-----7----------------
------------------------------------------8-------------
--------------------------------------------------------

Intro Part 2 (Distortion)
--------------------------------------------------------
--------------------------------------------------------
-------7------8---10-8-------7---3s5s3------------------
-------x------x-s--xsx-------x---x-x-x------------------
-0000--5--00--6-s--8s6--0000-5-x-1s3s1------------------
-0000-----00------------0000---x------------------------
[ Tab from: http://www.guitartabs.cc/tabs/t/triple_helix/not_here_tab.html ]
Chorus (distortion)
------------------------|--------------------------------
------------------------|--------------------------------
------2-----------------|------2-------------------------
------0---------------x3|------0-------------------------
-0000-0-0000--5h6p5s3---|-0000-0-0------------1h3p1------
-0000---0000--5h6p5s3---|-0000---0--3h5p3--1-------------

Bridge (Flanger w/ lite distortion)
-----------------------|-----------------------------------
-----------------------|-----------------------------------
--7-7---5---7-7---3----|--7-7--10---7-7---12---------------
--7-7---5---7-7---3--x3|--7-7--10---7-7---12---------------
--5-5---3---5-5---1----|--5-5---8---5-5---10---------------
--5-5---3---5-5---1----|--5-5---8---5-5---10---------------

Bridge Part2 (Distortion)
-----------------------------------------------------------
-----------------------------------------------------------
-------(7777)--------(7777)--------(5555)--------(5555)----
-------(7777)--------(7777)--------(5555)--------(5555)----
-0000----------0000----------3333----------3333------------
-0000----------0000----------3333----------3333------------
Comments