Trinity Roots - Little Things Chords & Tabs

 

Little Things Chords & Tabs

Trinity Roots Chords & Tabs

Version: 2 Type: Tab

Little Things Tab

-------------------------------------------------------------------------------
			     Little Things - Trinity Roots
-------------------------------------------------------------------------------
Tabbed by:dumptydo
Email:wharepaku@hotmail.com

This is my 1st time tabbing a song, so please excuse me for any 'technical' mistakes.
The tab itself is 100% correct.

Tuning:Standard

Basically the chords involved...
e|-x----x----x----x----4-----------------------------------------------------|
B|-1----3----4----4----4-----------------------------------------------------|
G|-1----3----3----3----3-----------------------------------------------------|
D|-1----3----3----x----3-----------------------------------------------------|
A|-x----x----x----3----4-----------------------------------------------------|
E|-1----3----4---------------------------------------------------------------|
[ Tab from: http://www.guitartabs.cc/tabs/t/trinity_roots/little_things_tab_ver_2.html ]
Let ring...
::Verse::
e|----------------------------------------------------------------4---------------------------------|
B|-------1--------------3--------4-----------5--------------4--------4--------------4---------------|
G|-------1-----------3-----------3--------4--------------3--------------3--------3------------------|
D|----1-----------3-----------3-----------------------3--------3--------------3---------------------|
A|-------------------------------------3--------3--4--------4--------------4-----------4--3---------|
E|-1--------1--3-----------4--------4--------------------------------------------------------6--4---|


::Chorus:: This is the pattern played first...
e|--------------------------------------------------------------------------------------------------|
B|-------1-----------3----------4--------------3----------------------------------------------------|
G|-------1-----------3----------3-----------3-------------------------------------------------------|
D|----1-----------3----------3-----------3----------------------------------------------------------|
A|--------------------------------------------------------------------------------------------------|
E|-1--------1--3--------3--4--------4--3------------------------------------------------------------|


::Chorus::  This is the pattern played second...
e|--------------------------------------------------------------------------------------------------|
B|-------1-----------3--------------4--------3------------------------------------------------------|
G|-------1-----------3-----------3-----------3------------------------------------------------------|
D|----1-----------3-----------3-----------3---------------------------------------------------------|
A|--------------------------------------------------------------------------------------------------|
E|-1--------1--3--------3--4-----------3-----------3------------------------------------------------|


Its a great song so play around with it and listen to the actual album!
Chur!
===============================================================================