Trik Turner - Not Like You Chords & Tabs

 

Not Like You Chords & Tabs

Trik Turner Chords & Tabs

Version: 3 Type: Tab 0 ratings
1 star 2 stars 3 stars 4 stars 5 stars
comments

Not Like You Tab

   
-------------------------------------------------------------------------------
			  Not Like You- Trik Turner
-------------------------------------------------------------------------------
Tabbed by:Nick Volk
Email: Volk_N@Msn.com

Tuning:Standard

[ Tab from: http://www.guitartabs.cc/tabs/t/trik_turner/not_like_you_tab_ver_3.html ]
Intro/Verse
e|-----------------------------|
B|----4--4---4--4----1-1--1-1--|
G|-----------------------------|
D|---0-0--0-0-0-----0----0-----|
A|--3---3--1---1-1-0--0--------|
E|----------------------4--4-4-|
Chorus
e|----------------------------------|
B|----------------------------------|
G|----0--0----0--0----0--0----0-0-0-|
D|---0-0-----0-0-----0-0-----0------|
A|--5---5-5/7---7-7-8---8-8/7--7-7--|
E|----------------------------------|

This is most likly the only correct tab for this song that you will find
if you have any questions please e-mail me Volk_N@Msn.com

| /  slide up
| \ slide down
| h  hammer-on
| p  pull-off
| ~  vibrato
| +  harmonic
| x  Mute note
===========================================================================
Comments