Trik Turner - Friends And Family Chords & Tabs

 

Friends And Family Chords & Tabs

Trik Turner Chords & Tabs

Version: 5 Type: Tab 0 ratings
1 star 2 stars 3 stars 4 stars 5 stars
comments

Friends And Family Tab

   
Author/Artist: Trik Turner
Title: Friend and Family
Transcribed by: Big Hoss
Email: darrenlw@mnwcsult.com

Tuning: (low to high) d, G, C, F, A, d

This is the correct way to play this song.  
This is a really great song, and its really easy to play
just listen to it to find to get the rhythm.  This song is 90% correct.

Main Riff 

------------------------------------------------------------------------------
-----------------------------------1------------------------------------------
--------0----------0----------0-----0--0--------------------------------------
------0---------2-----------2--------2----------------------------------------
----2-------0----------3--------3---------------------------------------------
--3---------------------------------------------------------------------------
                                                                              

----------------|---------------|---------------------------------------------
----------------|---------------|---------------------------------------------
------0-----0---|-----0-----0---|---------------------------------------------
----4---4-----4-|---2---2-----2-|---------------------------------------------
--5-------5-----|-3-------3-----|---------------------------------------------
----------------|---------------|---------------------------------------------
                                                                              
If you have any corrections please email me.
===========Friends & Family-Trik Turner
Trik Turner

Tune down 1 whole step:
d G C F A d

[ Tab from: http://www.guitartabs.cc/tabs/t/trik_turner/friends_and_family_tab_ver_5.html ]
Intro: Fig 1. (acoustic)

G               A7(no3)  C

d----------------------------------------------------------
a----------------------------------------1-----------------
f------------0--------0-----------0---------0-----0--------
c---------0--------2-----------2---------------2-----------
g-----2---------0--------3-----------3---------------------
d-0h3------------------------------------------------------

Verses/Chorus: Fig 1.

Bridge:  ...Ingestiní toxins keeps us locked in...

d----------------------------------------------------------
a-------------1-------------------------1------------------
f-------0--------0-----0----------0--------0-----0---------
c----2--------------2----------2--------------2------------
g-3--------3----------------3--------3---------------------
d----------------------------------------------------------

x2

d-------------2--------------------------------------------
a-------3--------3-----3----------------1------------------
f----2--------------2-------------0--------0-----0---------
c-0--------0-------------------2--------------2------------
g---------------------------3--------3---------------------
d----------------------------------------------------------

d---------------2h3p2-------------------------2------------
a--------3------------3-------3----------3----3------------
f----2--------------------2-----------2-------2------------
c-0---------0----------------------0----------0------------
g---------------------------------------------0------------
d----------------------------------------------------------

Play Fig 1. till the end.

thatís all, i guess......songís pretty gay

trevor jones
timmy91199@yahoo.ca
Comments