Trik Turner - Friends And Family Chords & Tabs

 

Friends And Family Chords & Tabs

Trik Turner Chords & Tabs

Version: 2 Type: Tab 0 ratings
1 star 2 stars 3 stars 4 stars 5 stars
comments

Friends And Family Tab

Author/Artist: Trik Turner
Title: Friends And Family
Transcribed by: Travis Naylor
Email: naylor@sniper.com
[ Tab from: http://www.guitartabs.cc/tabs/t/trik_turner/friends_and_family_tab_ver_2.html ]
Tuning: DGCFAD
D------------------------------------------------------------------------------
A---------------------------1--------------------------------------------------
F---------0-------0-----0-----0---0--------------------------------------------
C-------0-------2-----2---2-----2----------------------------------------------
G-----2-------0*----3*---------------------------------------------------------
D-0h3*-------------------------------------------------------------------------
 Intro (* = Hold note)                                                        

D------------------------------------------------------------------------------
A------------------------------------------------------------------------------
F------------------------------------------------------------------------------
C------------------------------------------------------------------------------
G------------------------------------------------------------------------------
D-0h3*---------5*---------8*---------------------------------------------------
 Verse                                                                        
Comments