Trigun - Trigun Theme Chords & Tabs

 

Trigun Theme Chords & Tabs

Trigun Chords & Tabs

Version: 1 Type: Bass Tab 0 ratings
1 star 2 stars 3 stars 4 stars 5 stars
comments

Trigun Theme Bass Tab

   
Trigun Bass tab

symbols:
b = bend
\ = slide
(n) = hold or let it ring the fret that was given

Bass fig. 1
G--------------------------------------------------------------|
D--------------------------------------------------------------|
A----------------3b-----------3-------------3b---3b---5-5------|
E--0-3-4-5-3-4-5----5-3-2-3-5---3-4-5-3-4-5---5----5-----------|
    triplets

G--------------------------------------------------------------|
D--------------------------------------------------------------|
A----------------3b----------3-------------3b--3b--------------|
E--0-3-4-5-3-4-5---5-3-2-3-5---3-4-5-3-4-5----5---5---8-3-4-5--|


G-----------------------------------------------------------|
D-----------------------------------------------------------|x2
A----------------3b----------3b--------------3---3---5-5----|
E--0-3-4-5-3-4-5----5-3-2-3-5---3-4-5-3-4-5---5---5---------|



G----------------------------------------------------------------------|
D----------------------------------------------------------------------|
A----------------3-----------3-------------3---3-----------------------|
E--0-3-4-5-3-4-5---5-3-2-3-5---3-4-5-3-4-5---5---5--8--3-4-5-3p5p3p5---|


[ Tab from: http://www.guitartabs.cc/tabs/t/trigun/trigun_theme_btab.html ]
Bass fig. 2
G----------------------------------|--------------------------------------|
D----------------------------------|--------------------------------------|
A--------(5)---5--3--(0)--------(5)|------------------------7-5-3---------|
E--3--5-------------------3--5-----|--------------------------------------|



Bass fig. 3
G-------------------------------------------------------------|
D-------------------------------------------------------------|
A--5--3-4-5--3-4-5---5-3-5-0-3-5-5--3-4-5--3-4-5-4--5\4-------|x2
E-------------------------------------------------------------|


G-------------------------------------------------------------|
D-------------------------------------------------------------|
A--5--3-4-5--3-4-5---5-3-5-0-3-5-5--3-4-5--3-4-5-4--5\4-5\6---|
E-------------------------------------------------------------|


G----------------------------------|--------------------------|
D----------------------------------|--------------------------|
A--7--5-6-7--5-6-7-5--------5-6-7--|--------------------------|
E--------------------7-0--7--------|--------------------------|



Outro
G---------------------------------------|--------------------------------|
D---------------------------------------|--------------------------------|
A-------(5)---5--3--(0)-------(5)-------|-------------7--5--3------------|
E--3--5------------------3--5-----------|------------------------(5)b----|

Order:
Bass fig. 1
Bass fig. 2
Bass fig. 3
Bass fig. 1
outro
Comments