Trigun - Rakuen Chords & Tabs

 

Rakuen Chords & Tabs

Trigun Chords & Tabs

Version: 1 Type: Tab 4 ratings
1 star 2 stars 3 stars 4 stars 5 stars
comments

Rakuen Tab

#-------------------------PLEASE NOTE-------------------------#
# This file is the author's own work and represents their     # 
# interpretation of the song. You may only use this file for  #
# private study, scholarship, or research.                    #                                                         
#-------------------------------------------------------------#

Rakuen (Paradise) by Tsuneo Imahori Tabbed by Mike Miazgowicz

This is the song that plays in the anime series Trigun during Wolfwood's
final episode.  Its a nice, mellow song and sounds great on an acoustic
or classical guitar.  I believe the original version is playing using a
different guitar tuning (possibly an open tuning), but it is tabbed
below using the standard EADGBE tuning.

A note on the timing:  the dots above each staff represent quarter note
beats.  For the most part, I've tried to match the tempo of the song as
close as possible.  For typographical reasons, however, the hammer-ons,
pull-offs and slides cannot be precisely timed, so use your own sense or
just listen to the original if you run into any problems.  See the
bottom of the page for an explanation of the symbols I used.

For quick reference:  The song is essentially comprised of multiple
distinct phrases that I've named in brackets above the staves.  The
ordering of these phrases is as follows:

Intro - Fill 1 - Fill 2 (x2) - Chorus (x4) - Fill 1 - Chorus 1 (x3) Fill
3 - Fill 2 (x2) - Chorus 2 - Refrain (x2) - Fill 4 - Fill 5 Fill 3 -
Fill 2 (x2) - Chorus 2 - Refrain (x3) - Fill 6 - Fill 1 - Outro

=============================================================================


{Intro
  .     .     .     .      .     .     .     .      .     .     .     .      
E|------------------------|------------------------|------------------------|
B|3-----------------3-----|3-----------------3-----|3-----------------3-----|
G|0-----------------0-----|0-----------------0--0--|0-----------------0-----|
D|2-----------------2--0--|3-----------------3-----|2-----------------2--0--|
A|------------------------|------------------------|------------------------|
E|------------------------|------------------------|------------------------|

                                                                           } 
  .     .     .     .      .     .     .     .      .     .     .     .      
E|------------------------|------------------------|------------------------|
B|3-----------------3-----|3-----------------------|3-----------------------|
G|0-----------------0-----|0-----------------------|0-----------------------|
D|3-----------------3--1--|1-----------------------|3-----------------------|
A|------------------------|------------------------|------------------------|
E|------------------------|------------------------|------------------------|

{Fill 1
  .     .     .     .      .     .     .     .      .     .     .     .      
E|------------------------|------------------------|------------------------|
B|------------------------|------------------------|------------------------|
G|------0--2--4-5p4-0-----|------0--------0--------|------0--2--4h5-7-0-----|
D|---0--------4--------0--|---0--------0--------0--|---0--------4--------0--|
A|------------------------|2/3------3--------2-----|------------------------|
E|3-----------------------|------------------------|3-----------------------|

                         } {Fill 2                                        2x}
  .     .     .     .       .     .     .     .      .     .     .     .      
E|------------------------||------------------------|------------------------||
B|------------------------||------------------------|------------------------||
G|------0--------0--------||---------0--------0-----|------0--------0--------||
D|---0--------0--------0--||---0--0--------0-----0--|---0-----0--0-----0--0--||
A|2/3------3--------2-----||------------------------|------------------------||
E|------------------------||3-----------3-----------|3-----------3-----------||

{Chorus 1                                        4x} {Fill 1
   .     .     .     .      .     .     .     .       .     .     .     .      
E||------------------------|------------------------||------------------------|
B||------------3-----------|------------------------||------------------------|
G||------0--2-----2--0-----|---0--2-----0--2-----0--||------0--2--4-5p4-0-----|
D||---0--------4-----------|4-----------------------||---0--------4--------0--|
A||---------------------3--|---------3--------2-----||------------------------|
E||3-----------------------|------------------------||3-----------------------|

{Fill 1                                                                    }
  .     .     .     .      .     .     .     .      .     .     .     .      
E|------------------------|------------------------|------------------------|
B|------------------------|------------------------|------------------------|
G|------0--------0--------|------0--2--4h5-7-0-----|------0--------0--------|
D|---0--------0--------0--|---0--------4--------0--|---0--------0--------0--|
A|2/3------3--------2-----|------------------------|2/3------3--------2-----|
E|------------------------|3-----------------------|------------------------|

{Chorus 1                                        3x} {Fill 3
   .     .     .     .      .     .     .     .       .     .     .     .      
E||------------------------|------------------------||------------------------|
B||------------3-----------|------------------------||------3-----3-----------|
G||------0--2-----2--0-----|---0--2-----0--2-----0--||------4-----2--0--------|
D||---0--------4-----------|4-----------------------||---0-----------------2--|
A||---------------------3--|---------3--------2-----||------------------------|
E||3-----------------------|------------------------||3-----------------------|

                         } {Fill 2                                        2x}
  .     .     .     .       .     .     .     .      .     .     .     .      
E|------------------------||------------------------|------------------------||
B|------1--3--------1--3--||------------------------|------------------------||
G|---0-----------0--------||---------0--------0-----|------0--------0--------||
D|------------1-----------||---0--0--------0-----0--|---0-----0--0-----0--0--||
A|------------------------||------------------------|------------------------||
E|------------------------||3-----------3-----------|3-----------3-----------||

{Chorus 2
  .     .     .     .      .     .     .     .      .     .     .     .      
E|------------------------|------------------------|------------------------|
B|------------3--------3--|------3--1-----0--------|------------3--------3--|
G|------0--2-----0--2-----|---0--------------0-----|------0--2-----0--2-----|
D|---0--------3-----------|2-----------1--------1--|---0--------3-----------|
A|------------------------|------------------------|------------------------|
E|3-----------------------|------------------------|3-----------------------|


  .     .     .     .      .     .     .     .      .     .     .     .      
E|------------------------|------------------------|------------------------|
B|------3-----------3-----|------------3--------3--|------------------------|
G|---0-----0-----0-----0--|------0--2-----0--2-----|------0--2-----0--2-----|
D|2-----------1-----------|---0--------4-----------|---4--------4-----------|
A|------------------------|------------------------|3-----------------------|
E|------------------------|3-----------------------|---------------------0h2|


  .     .     .     .      .     .     .     .      .     .     .     .      
E|------------------------|------------------------|------------------------|
B|------------------------|------------------------|------------1--3-----3--|
G|------0--2--4--2-----0--|------X--0--------------|------0--2--2--0--------|
D|---0--------5--4-----2--|------X--2--------------|---0--------------------|
A|------------------------|------------------------|------------------------|
E|3-----------------------|---------------------0h2|3-----------------------|

                                                                           }
  .     .     .     .      .     .     .     .      .     .     .     .      
E|------------------------|------------------------|------------------------|
B|------------1p0-3----3--|------------1--3-----3--|------------3-----------|
G|------0--2--2p0-0-------|------0--2--2--0--------|------0--2--------------|
D|---0--------------------|---0--------------------|---0--------------------|
A|------------------------|------------------------|------------------------|
E|3-----------------------|3-----------------------|3-----------------------|
[ Tab from: http://www.guitartabs.cc/tabs/t/trigun/rakuen_tab.html ]
{Refrain
   .     .     .     .      .     .     .     .      .     .     .     .      
E||------------------------|------------------------|------------------------|
B||------------------------|------------3-----------|------------------------|
G||------0--2--------0--2--|---------0-----0--------|------0--2--------0--2--|
D||---4--------0--4--------|------0-----------0-----|---4--------0--4--------|
A||3-----------------------|---2-----------------2--|3-----------------------|
E||------------------------|3-----------------------|------------------------|

                       2x} {Fill 4                 }{Fill 5
  .     .     .     .       .     .     .     .      .     .     .     .      
E|------------------------||------------------------|------------------------|
B|------------3-----------||------------3-----------|------------------3--1--|
G|------0--2-----2--0-----||------0--2--------------|------0--2--2/4---2-----|
D|---4-----------------4--||---4--------------------|---0-----------0--------|
A|------------------------||------------------------|------------------------|
E|0-----------------------||0-----------------------|3-----------------------|


  .     .     .     .      .     .     .     .      .     .     .     .      
E|------------------------|------------------------|------------------------|
B|------1--------1--------|------------------3--1--|------1--------1--------|
G|---0--------0-----------|------0--2--2/4---2-----|---0--------0-----------|
D|3--------3--------2--0--|---0-----------0--------|3--------3--------2--0--|
A|------------------------|------------------------|------------------------|
E|------------------------|3-----------------------|------------------------|


  .     .     .     .      .     .     .     .      .     .     .     .      
E|------------------------|------0-----------------|------------------------|
B|------------------3--3--|---------1-----0--------|------3-----3-----------|
G|------0--2--2/4---2-----|---0--------------------|------4-----2--0--------|
D|---0-----------0--------|3-----------3-----2--0--|---0-----------------2--|
A|------------------------|------------------------|------------------------|
E|3-----------------------|------------------------|3-----------------------|

                         } {Fill 2                                        2x}
  .     .     .     .       .     .     .     .      .     .     .     .      
E|------------------------||------------------------|------------------------||
B|------1--3--------1--3--||------------------------|------------------------||
G|---0-----------0--------||---------0--------0-----|------0--------0--------||
D|------------1-----------||---0--0--------0-----0--|---0-----0--0-----0--0--||
A|------------------------||------------------------|------------------------||
E|------------------------||3-----------3-----------|3-----------3-----------||

{Chorus 2
  .     .     .     .      .     .     .     .      .     .     .     .      
E|------------------------|------------------------|------------------------|
B|------------3--------3--|------3--1-----0--------|------------3--------3--|
G|------0--2-----0--2-----|---0--------------0-----|------0--2-----0--2-----|
D|---0--------3-----------|2-----------1--------1--|---0--------3-----------|
A|------------------------|------------------------|------------------------|
E|3-----------------------|------------------------|3-----------------------|


  .     .     .     .      .     .     .     .      .     .     .     .      
E|------------------------|------------------------|------------------------|
B|------3-----------3-----|------------3--------3--|------------------------|
G|---0-----0-----0-----0--|------0--2-----0--2-----|------0--2-----0--2-----|
D|2-----------1-----------|---0--------4-----------|---4--------4-----------|
A|------------------------|------------------------|3-----------------------|
E|------------------------|3-----------------------|---------------------0h2|


  .     .     .     .      .     .     .     .      .     .     .     .      
E|------------------------|------------------------|------------------------|
B|------------------------|------------------------|------------1--3-----3--|
G|------0--2--4--2-----0--|------X--0--------------|------0--2--2--0--------|
D|---0--------5--4-----2--|------X--2--------------|---0--------------------|
A|------------------------|------------------------|------------------------|
E|3-----------------------|---------------------0h2|3-----------------------|

                                                                           }
  .     .     .     .      .     .     .     .      .     .     .     .      
E|------------------------|------------------------|------------------------|
B|------------1p0-3----3--|------------1--3-----3--|------------3-----------|
G|------0--2--2p0-0-------|------0--2--2--0--------|------0--2--------------|
D|---0--------------------|---0--------------------|---0--------------------|
A|------------------------|------------------------|------------------------|
E|3-----------------------|3-----------------------|3-----------------------|

{Refrain
   .     .     .     .      .     .     .     .      .     .     .     .      
E||------------------------|------------------------|------------------------|
B||------------------------|------------3-----------|------------------------|
G||------0--2--------0--2--|---------0-----0--------|------0--2--------0--2--|
D||---4--------0--4--------|------0-----------0-----|---4--------0--4--------|
A||3-----------------------|---2-----------------2--|3-----------------------|
E||------------------------|3-----------------------|------------------------|

                       3x} {Fill 6
  .     .     .     .       .     .     .     .      .     .     .     .      
E|------------------------||------------------------|------------------------|
B|------------3-----------||------------------------|------------3-----------|
G|------0--2-----2--0-----||------0--2--------0--2--|---------0-----0--------|
D|---4-----------------4--||---4--------0--4--------|------0-----------0-----|
A|------------------------||3-----------------------|---2-----------------2--|
E|0-----------------------||------------------------|3-----------------------|

                         } {Fill 1
  .     .     .     .      .     .     .     .      .     .     .     .      
E|------------------------|------------------------|------------------------|
B|------------------------|------------------------|------------------------|
G|------0--2--------0--2--|------0--2--4-5p4-0-----|------0--------0--------|
D|---4--------0--4--------|---0--------4--------0--|---0--------0--------0--|
A|3-----------------------|------------------------|2/3------3--------2-----|
E|------------------------|3-----------------------|------------------------|

                                                  } {Outro
  .     .     .     .      .     .     .     .      .     .     .     .      
E|------------------------|------------------------|------------------------|
B|------------------------|------------------------|------------------------|
G|------0--2--4h5-7-0-----|------0--------0--------|------0--2--4-5p4-0-----|
D|---0--------4--------0--|---0--------0--------0--|---0--------4--------0--|
A|------------------------|2/3------3--------2-----|------------------------|
E|3-----------------------|------------------------|3-----------------------|


  .     .     .     .      .     .     .     .      .     .     .     .      
E|------------------------|------------------------|------------------------|
B|------------------------|------------------------|------------3-----------|
G|------0--------0--------|------0--2--4h5-7-0-----|---0-----0-----2--0-----|
D|---0--------0--------0--|---0--------4--------0--|------4--------------4--|
A|2/3------3--------2-----|------------------------|2/3---------------------|
E|------------------------|3-----------------------|------------------------|

                                                                           } 
  .     .     .     .      .     .     .     .      .     .     .     .      
E|------------------------|------------------------|------------------------|
B|3-----------------------|3-----------------------|---3--------------------|
G|0-----------------------|0-----------------------|--0---------------------|
D|1-----------------------|------------------------|-2----------------------|
A|------------------------|3-----------------------|0-----------------------|
E|------------------------|------------------------|------------------------|


=============================================================================


#-----------------------------------KEY-----------------------------------#
# 1h3 : 1 hammer on to 3                                                  #
# 3p1 : 3 pull off to 1                                                   #
# 1/3 : 1 slide to 3                                                      #
# ||----|| : Repeat section within ||                                     #
# X : Percussive mute.  Strike your fingernails against the strings.      #
#-------------------------------------------------------------------------#

Comments