Tricot - Ochansensu-su Chords & Tabs

 

Ochansensu-su Chords & Tabs

Tricot Chords & Tabs

Version: 1 Type: Tab 0 ratings
1 star 2 stars 3 stars 4 stars 5 stars
comments

Ochansensu-su Tab

おちゃんせんすぅす (Ochansensu-su) - tricot tabs

Most of this tab was worked out from this girls cover, so she gets most of the 
credit, not me!: http://www.youtube.com/watch?v=8MkMXLPCqzQ
Some parts, mainly 1:07 onwards looked different in the official vid so I tried to 
work out what the actual notes were, probably failed.

Lead Guitar

e|------------------------------------|
B|-6-7--------------------------------|
G|-6-7-6------------6~----------------|
D|-----6------------6~----------------|
A|-6-7--------------------------------|
E|-----6------------7~----------------|
         ochansensu-su~

e|------------------------------------|
B|-6-7--------6-7--------6-7----------|
G|-6-7-6-6~---6-7-6-6~---6-7-6-6~-----|
D|-----6-6~-------6-6~-------6-6~-----|
A|-6-7---4~---6-7--------6-6---4~-----|
E|-----6----------6-7~-------6--------|

e|------------------------------------|
B|-6-X7----------666-777--------------|
G|-6-X7-X6-X6~---666-777-66-6~--------|
D|------X6-X6~-----------66-6~--------|
A|-6-X7----------666-777----4~--------|
E|------X6-X7~-----------66-----------| 
                 v^^ v^^ v^

I think the upstrokes are from the rhythm guitar so miss them out if you want

e|------------------------------------|
B|-6-X7----------6-7------------------|
G|-6-X7-X6-X6~---6-7-6-6~-------------|
D|------X6-X6~-------6-6~-------------|
A|-6-X7----------6-7---4~-------------|
E|------X6-X7~-------6----------------|

(0:32)

e|------------------------------------|
B|------------7p6---------------------|
G|---8-----6-----6---------------6----|
D|-----6-8--6----------6-6-----6------|
A|-6----------------------------------|
E|-----------------666-----6h7--------| x3

e|------------------------------------|
B|------------7p6---------------------|
G|---8-----6-----6-------------6------|
D|-----6-8--6----------6-6-------6----|
A|-6----------------------------------|
E|-----------------666-----6h7--------|
[ Tab from: http://www.guitartabs.cc/tabs/t/tricot/ochansensu_su_tab.html ]
e|----------------------------------------|
B|------------7p6-------------------------|
G|---8-----6-----6---------------6-7-6-6--|
D|-----6-8--6----------6-6-----6-6-7-6-6--|
A|-6--------------------------------------|
E|-----------------666-----6h7---------7--|

e|----------------------------------------|
B|-666-777---------6-X7----------6-7------|
G|-666-777-66-6~---6-X7-X6-X6~---6-7-6-6--|
D|---------66-6~--------X6-X6~-------6-6--|
A|-666-777----4~---6-X7----------6-7---4--|
E|---------66-----------X6-X7~-------6----| 
   v^^ v^^ v^

(1:07)

e|------------------------------------|
B|--------------7p6-------------------|
G|---8-------6-----6--88-8X999--------|
D|-----6-8/9--6-------88-8X999--------|
A|-6----------------------------------|
E|--------------------88-8X999--------| x7

not 100% on this, but sounds about right

e|--------------------------------|
B|--------------7p6----------6----|
G|---8-------6-----6--88-8---6----|
D|-----6-8/9--6-------88-8--------|
A|-6-------------------------6----|
E|--------------------88-8--------|

(1:39)

e|-----------------------------------------|
B|----6-7p6--------------6-7p6--------(4)--|
G|---6-----6---6---6----6-----6---6-(4)4---|
D|--8---------6---6----8---------6---4-----|
A|-6------------------6--------------------|
E|-----------6---7--------------6---4------| x4

e|--------------------------|
B|--6~7~-------6~7~---------|
G|--6~7~6~6~---6~7~6~6~-----|
D|------6~6~-------6~6~-----|
A|--6~7~-------6~6~--4~-----|
E|------6~7~-------6~-------| x2

e|--------------------------|
B|-6-7--------6-X7----------|
G|-6-7-6-6~---6-X7-X6-X6~---|
D|-----6-6~--------X6-X6~---|
A|-6-7--------6-X7----X4~---|
E|-----6-7~--------X6-------|

e|-------------------------------|
B|-666-777---------6-7-----------|
G|-666-777-66-6~---6-7-6-6-6-6-6-|
D|---------66-6~-------6-6-6-6-6-|
A|-666-777---------6-7---4-4-4-4-|
E|---------66-7~-------6---------| 
   v^^ v^^ v^

e|----------------------------|
B|------------7p6-------------|
G|---8-----6-----6-6~6--------|
D|-----6-8--6------6~6--------|
A|-6--------------------------|
E|-----------------6~6--------|
Comments