Tricky Woo - Born Due Chords & Tabs

 

Born Due Chords & Tabs

Tricky Woo Chords & Tabs

Version: 1 Type: Tab 0 ratings
1 star 2 stars 3 stars 4 stars 5 stars
comments

Born Due Tab

Tricky Woo - Born Due
Cd - Somtimes I Cry
Tabbed by : Dave Schneider

Its a great song and I'll show you all the chords and you can 
figure out all the soloing its fairly wide open.

Standard Tuning
Riff 1         3x			          let ring
|----------------------------------|----------------|
|----------------------------------|----------------|
|--2-------------------------------|--2-------------|
|--2-2------0h1h2-----0h1h2-----0--|--2-2~~~~~~~----|
|--0-2-0h1h2-----0h1h2-----0h1h2---|--0-2~~~~~~~----|
|----0-----------------------------|----0~~~~~~~----|

[ Tab from: http://www.guitartabs.cc/tabs/t/tricky_woo/born_due_tab.html ]
just continue banging out the  A and E chords until
you go into this:
	   2x
|------------------|    	|--------------|
|------------------| Back to    |--------------|
|--5---------------|  Riff 1	|------7---5---|
|--5-5-5-5-5-5-5-5-|   then	|--7---7---5---|
|--3-5-5-5-5-5-5-5-|    	|--7---5---3---|
|----3-3-3-3-3-3-3-|        	|--5-----------|


|-----------------| A little	  |-----------|
|-----------------| solo now	  |-----------|
|--10-10---12-12--|   thats 	  |--5--------|
|--10-10---12-12--| around the    |--5-----5--|
|--8--8----10-10--| 5th fret.     |--3-----5--|
|-----------------|		  |--------3--|

those are all the parts now put the peices together and jam away.

Dave Schneider

O  HAND PICKED  O  TREE RIPENED  O

Comments