Trick Daddy - Lets Go Chords & Tabs

 

Lets Go Chords & Tabs

Trick Daddy Chords & Tabs

Version: 5 Type: Tab 0 ratings
1 star 2 stars 3 stars 4 stars 5 stars
comments

Lets Go Tab

This is the best i could do. It sounds really good. make sure you add a little bit of
distortion and you will be set. Have fun with it. *CivicDemond@netscape.net or
undercoverbrother_89@hotmail.com*



[ Tab from: http://www.guitartabs.cc/tabs/t/trick_daddy/lets_go_tab_ver_5.html ]
e|-----9---10----9-7----------------------|
b|-7-7---7-----7------10-10-9--10-10-9-6--|
g|----------------------------------------|
d|----------------------------------------|
a|----------------------------------------|
e|----------------------------------------|

                                                  *(repeat 4 times)*

e|-----9---10----9-7----------------------|
b|-7-7---7-----7------10-10-9-10-10-9-6---|
g|----------------------------------------|
d|----------------------------------------|
a|----------------------------------------|
e|----------------------------------------|
Comments