Trick Daddy - Lets Go Chords & Tabs

 

Lets Go Chords & Tabs

Trick Daddy Chords & Tabs

Version: 3 Type: Tab 0 ratings
1 star 2 stars 3 stars 4 stars 5 stars
comments

Lets Go Tab

This first part everyone seems to have right but no one that i have seen thus far as the
Outro correct, so i thought i'd correct them.

Tuning:Standard

[ Tab from: http://www.guitartabs.cc/tabs/t/trick_daddy/lets_go_tab_ver_3.html ]
e|---------------------------------------------------------------------------|
B|---------------------------------------------------------------------------|
G|-------2-2---------------7--7----------------------------------------------|
D|4-4----2-2--2-2--4--4----7--7--2-2--4--4-----------------------------------|
A|4-4----0-0--2-2--4--4----5--5--2-2--4--4-----------------------------------|
E|2-2---------0-0--2--2----------0-0--2--2-----------------------------------|


e|-----9---10---9---7-7------------------------------------------------------|
B|-7-7---7----7---7-----10----10-9-7-----------------------------------------|
G|-----------------------------------9---------------------------------------|
D|---------------------------------------------------------------------------|
A|---------------------------------------------------------------------------|
E|---------------------------------------------------------------------------|
-
Comments