Trey Anastasio - Mozambique Chords & Tabs

 

Mozambique Chords & Tabs

Trey Anastasio Chords & Tabs

Version: 1 Type: Tab 0 ratings
1 star 2 stars 3 stars 4 stars 5 stars
comments

Mozambique Tab

   
Trey Anastasio, Mozambique (Free Thought).
 Tabbed by Sam, funkybrenner@aol.com.
  
Trey was the guitarist in Phish now on his solo tour. This is a song from it.

Trey Anastasio - Mozambique

Riff A

E-4--8--6--9---8--6--4--
B-6--9--7--11--9--7--6--
G-6--8--6--11--8--6--6--
D-----------------------
A-----------------------
E-----------------------

Riff B

E-2--6--4--
B-4--7--6--
G-4--6--6--
D----------
A----------
E----------

Riff C
  v v v v v v v v v v ^ v ^
E-4-4-2-4-4-2-4-4-2-4-4-4-4-
B-6-6-4-6-6-4-6-6-4-6-6-6-6-
G-6-6-4-6-6-4-6-6-4-6-6-6-6-
D---------------------------
A---------------------------
E---------------------------
[ Tab from: http://www.guitartabs.cc/tabs/t/trey_anastasio/mozambique_tab.html ]
Melody
e--------------------6--7--------6--7--6--7--6-----------------------
B-----------6--7--9-----------------------------9--7--6--------------
G--6--6--8-----------------------------------------------------------
D--------------------------------------------------------------------
A--------------------------------------------------------------------
E--------------------------------------------------------------------


e--------------------------------------------------------------------
B--6--6--7--9--9--9--6----------6--7--6--7--6--7--6------------------
G-----------------------6----------------------------6---------------
D--------------------------------------------------------------------
A--------------------------------------------------------------------
E--------------------------------------------------------------------


Song Construction
Intro
A x2
B x2
A x1
C x4 (?)

Melody x3 I
C x2      \\
A x2       } x2
B x2      /
A x1      I
C x4      I

Then there's a jam here, so do what you want! 
:: Ultimate Guitar Archive :: 
http://www.ultimate-guitar.com 



Comments