Trevor Rabin - Armageddon Chords & Tabs

 

Armageddon Chords & Tabs

Trevor Rabin Chords & Tabs

Version: 1 Type: Tab 0 ratings
1 star 2 stars 3 stars 4 stars 5 stars
comments

Armageddon Tab

   
This guy does a lot of soundtrack work for movies. this is a sick guitar part, for a
sick song, that goes along w/a sick movie. Enjoy!

Armageddon Suite by Trevor Rabin
Tabbed by: rdsox556
email: rdsox556@juno.com

Tuning: standard

The guitar part to this starts about 2 and a half minutes into the song, but its worth
the wait. (if u dont have a copy of the song contact me)

/=slide
h=hammer on
p=pull off
b=bend
d=down (take the bend down but keep the note there)
~=vibrato

e:------------------------------------------------------------------------|
b:----------------b5d-5h6p5----5---------5--------------------------------|
g:5-55--5--77--5-----------7-5------5-55---77--5/14-b10d9-7-54------------|
d:------------------------------------------------------------------------|
a:------------------------------------------------------------------------|
E:------------------------------------------------------------------------|


e:--------------------55---8-555---5-----58-10-12-------------------------|
b:-5-65-----------5------85-----858-88-58---------------------------------|
g:-----75-------57-7------------------------------------------------------|
d:7-7-----75--5-----------------------------------------------------------|
a:-----------8------------------------------------------------------------|
E:------------------------------------------------------------------------|

[ Tab from: http://www.guitartabs.cc/tabs/t/trevor_rabin/armageddon_tab.html ]
e:----12-10-------------------------------85----5-------------------------|
b:--10-----13-13--10------------------------686--865-565------------------|
g:12------------10--10-12-10-99-10-9--------------------7-54--------------|
d:--------------------------------------12--------------------------------|
a:------------------------------------------------------------------------|
E:------------------------------------------------------------------------|


e:------------5---7-8/10--------------------------12-15-17----------------|
b:-5--65/1-58------------8/10-------3---8-10-10-13------------------------|
g:5-7---------------------------54---5------------------------------------|
d:------------------------------------------------------------------------|
a:------------------------------------------------------------------------|
E:------------------------------------------------------------------------|


e:---------37-10-------10h12p10--10---10h12p10----10h12p10--12-10---------|
b:--------3------13-12---------13-------------13----------13-----13-10----|
g:2-25252-----------------------------------------------------------------|
d:------------------------------------------------------------------------|
a:------------------------------------------------------------------------|
E:------------------------------------------------------------------------|


e:-058787878787878-10-10-878873-3-3-3-3-05058-b10d8-13~~------------------|
b:1----------------------------3-1-0-1-3----------------------------------|
g:------------------------------------------------------------------------|
d:------------------------------------------------------------------------|
a:------------------------------------------------------------------------|
E:------------------------------------------------------------------------|

the rest of this is trumpet and other stuff. the rhythm is a little funky sometimes, so
listen to the song to get it right.

submit questions and comments to my email
Comments