Trespass - One Of These Days Chords & Tabs

 

One Of These Days Chords & Tabs

Trespass Chords & Tabs

Version: 1 Type: Tab 0 ratings
1 star 2 stars 3 stars 4 stars 5 stars
comments

One Of These Days Tab

   
Artist: Trespass 
Song: One of These Days
Album: One of These Days EP
This is a classic NWOBHM song.  

“Standard Tuning”
Strings E=1, B=2, G=3, D=4, A=5, E=6

Intro: Lay down a D minor Chord (See Below)

E-------0--------------Here is the Chord:--0-
B-----6---6--------------------------------6-
G-----------7------------------------------7-
D---7--------------------------------------7-
A-5----------------------------------------5-
[ Tab from: http://www.guitartabs.cc/tabs/t/trespass/one_of_these_days_tab.html ]
Intro Solo: >Slide ~Hold Note
G-5>7~-5-0-2--2-------------5>7~-7-9-10-12-10-9-5~-
D---------------0-2~-------------------------------
A--------------------0-3-5~------------------------

G-5-7-9-10-9-5-3~-5~--7~-7-9-10-12-10-9-5~-
A------------------------------------------
D------------------------------------------

G-5-7-9-10-9-5-3~5~10~9~7~-
A--------------------------
D--------------------------

Main RIff/Chorus:
D-7-10-5-3---3-5-2------7-10-5--3---3-5-7-5-7-
A-5-8--3-1---1-3-0-5----5-8---3-1---1-3-5-3-5-
E------------------3--------------------------

Verse:
G--------7-
D-7-10-5-5-
A-5-8--3---
Comments