Tree 63 - King Chords & Tabs

 

King Chords & Tabs

Tree 63 Chords & Tabs

Version: 1 Type: Tab 0 ratings
1 star 2 stars 3 stars 4 stars 5 stars
comments

King Tab

Song: King
Artist: Tree63
Album: The answer to the question (2004)
Tabbed by: Marnus van der Merwe





INTRO(part1)
                                               
E||-------11------11------10------11------11--|
B||----11------11------11------11------11-----|
G||--8-------8-------8-------8-------8--------|
D||-------------------------------------------|
A||-------------------------------------------|
E||-------------------------------------------|


                                                 
--------11-------11-------10-------11-------11--|
-----11-------11-------11-------11-------11-----|
------------------------------------------------|
--10-------10-------10-------10-------10--------|
------------------------------------------------|
------------------------------------------------|


                                            
-------11------11------10------11------11--|
----11------11------11------11------11-----|
-------------------------------------------|
--8-------8-------8-------8-------8--------|
-------------------------------------------|
-------------------------------------------|


                                                 
--------11-------11-------10-------11-------11--|
-----11-------11-------11-------11-------11-----|
------------------------------------------------|
------------------------------------------------|
--11-------11-------11-------11-------11--------|
------------------------------------------------|




INTRO (part2) guitar1                                                 
--------------------------------------------------|
--------------------------------------------------|
--------------------------------------------------|
--13-13-13-13-13-13-13-13-13-13-13-13-13-13-13-13-|
--13-13-13-13-13-13-13-13-13-13-13-13-13-13-13-13-|
--11-11-11-11-11-11-11-11-11-11-11-11-11-11-11-11-|


                                                   
--------------------------------------------------|
--------------------------------------------------|
--------------------------------------------------|
--10-10-10-10-10-10-10-10-10-10-10-10-10-10-10-10-|
--10-10-10-10-10-10-10-10-10-10-10-10-10-10-10-10-|
--8--8--8--8--8--8--8--8--8--8--8--8--8--8--8--8--|


                                                                          
----------------------------------|
----------------------------------|
----------------------------------|
--8-8-8-8-8-8-8-8-8-8-8-8-8-8-8-8-|
--8-8-8-8-8-8-8-8-8-8-8-8-8-8-8-8-|
--6-6-6-6-6-6-6-6-6-6-6-6-6-6-6-6-|


INTRO (part 2) guitar2

E||-----------------------|-----------------------|-----------------------|
B||--9----8---------------|--9----8---------------|--9----8---------------|
G||------------10----8----|------------10----8----|------------10----8----|
D||-----------------------|-----------------------|-----------------------|
A||-----------------------|-----------------------|-----------------------|
E||-----------------------|-----------------------|-----------------------|


                     
-------------------||
-------------------||
-------------------||
--8----------------||
-------------------||
-------------------||


Verse
  
-------------------|------------------|
-------------------|------------------|
-------------------|------------------|
--6----------------|------------------|
--6----------------|------------------|
--4----------------|------------------|
[ Tab from: http://www.guitartabs.cc/tabs/t/tree_63/king_tab.html ]
                      we have heard....
                                                         
------------------|-------------------|-------------------|
------------------|-------------------|-------------------|
------------------|-------------------|-------------------|
------------------|--8----------------|--6----------------|
------------------|--8----------------|--6----------------|
------------------|--6----------------|--4----------------|


                                                              
--------------------|-------------------|--------------------|
--------------------|-------------------|--------------------|
--------------------|-------------------|--------------------|
--5--------6--------|--8----------------|--3--------5--------|
--5--------6--------|--8----------------|--3--------5--------|
--3--------4--------|--6----------------|--1--------3--------|


                                                                       
-------------------|
-------------------|
-------------------|
--6----------------|
--6----------------|
--4----------------|



Chorus
--------------------------------------------------|
--------------------------------------------------|
--------------------------------------------------|
--13-13-13-13-13-13-13-13-13-13-13-13-13-13-13-13-|
--13-13-13-13-13-13-13-13-13-13-13-13-13-13-13-13-|
--11-11-11-11-11-11-11-11-10-10-10-10-10-10-10-10-|

give you glory...
                                           
------------------------------------------|
------------------------------------------|
------------------------------------------|
--10-10-10-10-10-10-10-10-8-8-8-8-8-8-8-8-|
--10-10-10-10-10-10-10-10-8-8-8-8-8-8-8-8-|
--8--8--8--8--8--8--8--8--6-6-6-6-6-6-6-6-|


                                                                      
----------------------------------|----------------------------------|
----------------------------------|----------------------------------|
----------------------------------|----------------------------------|
--6-6-6-6-6-6-6-6-5-5-5-5-5-5-5-5-|--3-3-3-3-3-3-3-3-6-6-6-6-6-6-6-6-|
--6-6-6-6-6-6-6-6-5-5-5-5-5-5-5-5-|--3-3-3-3-3-3-3-3-6-6-6-6-6-6-6-6-|
--4-4-4-4-4-4-4-4-3-3-3-3-3-3-3-3-|--1-1-1-1-1-1-1-1-4-4-4-4-4-4-4-4-|


                                                   
--------------------------------------------------|
--------------------------------------------------|
--------------------------------------------------|
--13-13-13-13-13-13-13-13-13-13-13-13-13-13-13-13-|
--13-13-13-13-13-13-13-13-13-13-13-13-13-13-13-13-|
--11-11-11-11-11-11-11-11-10-10-10-10-10-10-10-10-|


                                           
------------------------------------------|
------------------------------------------|
------------------------------------------|
--10-10-10-10-10-10-10-10-8-8-8-8-8-8-8-8-|
--10-10-10-10-10-10-10-10-8-8-8-8-8-8-8-8-|
--8--8--8--8--8--8--8--8--6-6-6-6-6-6-6-6-|


                                    
----------------------------------|
----------------------------------|
----------------------------------|
--6-6-6-6-6-6-6-6-8-8-8-8-8-8-8-8-|
--6-6-6-6-6-6-6-6-8-8-8-8-8-8-8-8-|
--4-4-4-4-4-4-4-4-6-6-6-6-6-6-6-6-|

Good song from the South African band. Fairly easy, tabbed in high detail. 
listen to the song and you should be able to figure it out. 







Song structure:
intro(parts 1 and 2)
Verse1
Chorus
intro(part2)
verse2
chorus
intro(part 1 with distortion and intro2 distorted in background)
interlude
chorus
intro(part2)


Lyrics:
Verse1
We have heard the thunder
We have seen the storm
echoes of your kingdom coming
rumours of our home
where one day we will stand before you Lord
our altogether beautiful reward


Chorus
We will give you glory, bring you honour
King above all Kings, you deserve our everything
We will lift our voices with your praises
Jesus you are our King

Verse2
Though now we walk in darkness
Though now we see in part
Right now were warmed by the burning flames
of the fire in our harts
You've promised you will lead us to your throne
were we will worship you and you alone


good song, with really cool intro. SA music forever. comments or suggestions, inxman00@yahoo.com
Comments