Tree 63 - Blessed Be Your Name Chords & Tabs

 

Blessed Be Your Name Chords & Tabs

Tree 63 Chords & Tabs

Version: 2 Type: Tab

Blessed Be Your Name Tab

Tree63
Blessed be Your Name (Rock version)

This isn't the actual version to the song but this is a version of it that is more rock than the actual one.

Intro:

|--------------------------------|
|--------------------------------|
|-5555555------------------------|
|-5555555-5555555-7777777-333333-|
|-3333333-5555555-7777777-333333-|
|---------3333333-5555555-111111-|
  ....... ....... ....... ......

|------------------------------|
|------------------------------|
|-5555555----------------------|
|-5555555-5555555-7777777-3333-|
|-3333333-5555555-7777777-3333-|
|---------3333333-5555555-1111-|
  ....... ....... ....... 

Do these really big

|--------------------------------|
|--------------------------------|
|-5555555------------------------|
|-5555555-5555555-7777777-333333-| (x2)
|-3333333-5555555-7777777-333333-|
|---------3333333-5555555-111111-|

Verse:

|-------------------------------------|
|-------------------------------------|
|-55555555----------------------------|
|-55555555-55555555-77777777-33333333-| (x4)
|-33333333-55555555-77777777-33333333-|
|----------33333333-55555555-11111111-|
  ........ ........ ........ ........

Bridge 1:

|------------------------------------|
|------------------------------------|
|-5-5-5-5----------------------------|
|-5-5-5-5--5-5-5-5--7-7-7-7--3-3-3-3-|
|-3-3-3-3--5-5-5-5--7-7-7-7--3-3-3-3-|
|----------3-3-3-3--5-5-5-5--1-1-1-1-|

Chorus:

Do these power chords big too.
[ Tab from: http://www.guitartabs.cc/tabs/t/tree_63/blessed_be_your_name_tab_ver_2.html ]
|--------------------------------|
|--------------------------------|
|-5555555------------------------|
|-5555555-5555555-7777777-333333-| (x2)
|-3333333-5555555-7777777-333333-|
|---------3333333-5555555-111111-|

Verse:

|-------------------------------------|
|-------------------------------------|
|-55555555----------------------------|
|-55555555-55555555-77777777-33333333-| (x4)
|-33333333-55555555-77777777-33333333-|
|----------33333333-55555555-11111111-|
  ........ ........ ........ ........

Bridge 1:

|------------------------------------|
|------------------------------------|
|-5-5-5-5----------------------------|
|-5-5-5-5--5-5-5-5--7-7-7-7--3-3-3-3-|
|-3-3-3-3--5-5-5-5--7-7-7-7--3-3-3-3-|
|----------3-3-3-3--5-5-5-5--1-1-1-1-|

Chorus:

|--------------------------------|
|--------------------------------|
|-5555555------------------------|
|-5555555-5555555-7777777-333333-| (x2)
|-3333333-5555555-7777777-333333-|
|---------3333333-5555555-111111-|

Bridge 2: (This sounds just like the chorus)

|--------------------------------|
|--------------------------------|
|-5555555------------------------|
|-5555555-5555555-7777777-333333-| (x2)
|-3333333-5555555-7777777-333333-|
|---------3333333-5555555-111111-|

Verse (Soft):

|-----------------|
|-----------------|
|---5-------------|
|--5----5---7---3-| (x2)
|-3----5---7---3--|
|-----3---5---1---|

Chorus:

|--------------------------------|
|--------------------------------|
|-5555555------------------------|
|-5555555-5555555-7777777-333333-| (x2)
|-3333333-5555555-7777777-333333-|
|---------3333333-5555555-111111-|

Bridge 2:

|--------------------------------|
|--------------------------------|
|-5555555------------------------|
|-5555555-5555555-7777777-333333-| (x2)
|-3333333-5555555-7777777-333333-|
|---------3333333-5555555-111111-|